Oops, an error
Loading. Please wait.

The Hard Way Home Tab

1,150 views 3 this week
no commentswrite comment
1 2 3 4 5
please rate
add to favorites
launch autoscroll
font size
0
reset
how to read this tab
guitar tuner
Tab Pro tools
  • play this tab
  • loop segment
  • change instrument
  • show fretboard
  • metronome
×
Best way to learn
"The Hard Way Home"
Autoscroll
slow
fast
+/-
esc
set tempo
stop
Contributor
Difficulty
Capo
novice
5th fret
This intro is played on mandolin in the song and is a couple octaves higher, but this
works for it if you're playing alone. It's pretty easy, and it's really easy to go right
into the song (the version 1, if you watch Brandi play it, that tab is written for the 
way she plays it)



Relative to Capo 5

(x3)
e ----------------|
B ----------------|
G ----------------|
D ----------------|
A ------2---2-----|
E --3-5---5---5-3-|

Then (basically the same as above, except the end)

e ----------------------------------------------|
B ----------------------------------------------|
G ----------------------------------------------|
D ----------------------2-2---------------------|
A ------2---2-------2-5-----5---2-----2---------|
E --3-5---5---5-3-3-----------5---5-3---5-3-----|

Then play The Hard Way Home (ver 1)
And there ya go.

(Again not claiming it's the right octave, it's just a good fill if you don't have a
mandolin, if someone can figure out where the right octave is played, I'll play that
instead of mine!)
comments
We did not receive enough feedback on this tab! Please rate:
print report bad tab
1 2 3 4 5
I want to post or [tab]
guest
You may want to rate the tab now too:
select rating
Please do not post tabs as comments. Select "correction" instead!