Oops, an error
Loading. Please wait.

The Hard Way Home intro tab

1,276 views 1 this week
1 commentread comment
1 2 3 4 5
3 more votes to show rating
add to favorites
×
Save as Personal and add changes to this tab that will be seen only by you. Learn more ›
×
You can save this tab as Personal to edit and correct it or add notes. All changes will be seen only by you. Learn more »
launch autoscroll
font size
0
reset
how to read this tab
guitar tuner
edit
Autoscroll
slow
fast
+/-
esc
set tempo
stop
This intro is played on mandolin in the song and is a couple octaves higher, but this
works for it if you're playing alone. It's pretty easy, and it's really easy to go right
into the song (the version 1, if you watch Brandi play it, that tab is written for the 
way she plays it)



Relative to Capo 5

(x3)
e ----------------|
B ----------------|
G ----------------|
D ----------------|
A ------2---2-----|
E --3-5---5---5-3-|

Then (basically the same as above, except the end)

e ----------------------------------------------|
B ----------------------------------------------|
G ----------------------------------------------|
D ----------------------2-2---------------------|
A ------2---2-------2-5-----5---2-----2---------|
E --3-5---5---5-3-3-----------5---5-3---5-3-----|

Then play The Hard Way Home (ver 1)
And there ya go.

(Again not claiming it's the right octave, it's just a good fill if you don't have a
mandolin, if someone can figure out where the right octave is played, I'll play that
instead of mine!)

            
            
Suggest correction
Creating personal tab
Creating personal tab
You can edit any tab online and save it as your Personal.

You can edit, replace or remove any tab part or add personal notes – all changes will be seen only by you.

Personal tabs can be accessed anytime from any device, even offline.
Learn more »
Give kudos to tab author, rate the tab!
1 2 3 4 5
comments
print report bad tab
1 comment total.
0 reply
jonpickett1 10 May 15, 2017 11:25 PM

it works great if you play

B-----------------------------------------------3--5--5--3----------------------
G--0--2--4--2--4--2--0--0--2--4--2--4--2--0--4--------------2--4--2--0--4--2--0-

guest
You may want to rate the tab now too:
select rating
Wanna post a correction for this tab? Suggest correction