Oops, an error
Loading. Please wait.

Give Me Your Eyes Bass Tab

9,111 views 1 this week
1 commentread comment
1 2 3 4 5
1 last vote to show rating
add to favorites
launch autoscroll
font size
0
reset
guitar tuner
Autoscroll
slow
fast
+/-
esc
set tempo
stop
Help us to improve Ultimate-Guitar.com Take our survey!
×
-------------------------------------------------------------------------------
			     give me your eyes- Brandon heath
-------------------------------------------------------------------------------


e-mail: joshua.rosario.p@gmail.com

Tuning: standard

G|---------------------------------------------------------------------------|
D|---20-18-16-h-18-p-16------------------------------------------------------|
A|-----------------------16--------------------------------------------------|
E|---------------------------------------------------------------------------|



| /  slide up
| \  slide down
| h  hammer-on
| p  pull-off
| ~  vibrato
| +  harmonic
| x  Mute note
===============================================================================
Suggest correction
Give kudos to tab author, rate the tab!
1 2 3 4 5
comments
print report bad tab
1 comment total.
+1 reply
mike_biro727 154 Jun 15, 2009 10:47 PM

try this instead

G|---15-13-----------------|
D|---------13h16h13--------|
A|-------------------------|
E|-------------------------|

guest
You may want to rate the tab now too:
select rating
Wanna post a correction for this tab? Suggest correction