Oops, an error
Loading. Please wait.

Im Not Who I Was Tab

version 1
version 1

Whole song

Interactive

17,435 views 6 this week
4 commentsread comments
1 2 3 4 5
x 4
add to favorites
×
Save as Personal and add changes to this tab that will be seen only by you. Learn more ›
×
You can save this tab as Personal to edit and correct it or add notes. All changes will be seen only by you. Learn more »
save as personal
new!
launch autoscroll
font size
0
reset
how to read this tab
guitar tuner
Autoscroll
slow
fast
+/-
esc
set tempo
stop
Capo
2nd fret
There is only 1 video tutorial, and this is where i made the tab from;

http://youtube.com/watch?v=83pDj-_YGcc&feature=related

Here is the tab,

PS:capo 2 or 3 which ever1 u think sounds better,
also, take a look at the video, its fairly easy and feel free to fix this if im wrong, 
first one so i hope it helps anyone...

e--------*----------*---------|
B------5-*--5-----5-*--5------|
G------4-*--4-----4-*--4------|
D---0----*-----0----*---------|
A--------*----------*---------|
E--------*----------*---------|

e--------*----------*---------|
B------5-*--5-----5-*--5------|
G------0-*--0-----0-*--0------|
D--------*----------*---------|
A--0-----*-----0----*---------|
E--------*----------*---------|

e--------|
B--------|
G--------|
D-----0--|
A--04----|
E--------|

e--------*----------*---------|
B------5-*--5-----5-*--5------|
G------0-*--0-----0-*--0------|
D--------*----------*---------|
A--0-----*-----0----*---------|
E--------*----------*---------|

e--------|
B--------|
G--------|
D-----0--|
A--04----|
E--------|


e--------*----------*----------|
B------5-*--5-----5-*--5-------|
G------0-*--0-----0-*--0-------|
D--------*----------*----------|
A--4-----*-----4----*----------|
E--------*----------*----------|

e--------*----------*---------|
B------5-*--5-----5-*--5------|
G------4-*--4-----4-*--4------|
D--------*----------*---------|
A--------*----------*---------|
E--4-----*-----4----*---------|

e--------*----------*---------|
B------5-*--5-----5-*--5------|
G------0-*--0-----0-*--0------|
D--------*----------*---------|
A--------*----------*---------|
E---5----*-----5----*---------|

e--------*----------*---------|
B------5-*--5-----5-*--5------|
G------0-*--0-----0-*--0------|
D--------*----------*---------|
A--5-----*-----5----*---------|
E--------*----------*---------|

e---4----|
B---5----|
G--------|
D--------|
A---5----|
E--------|

the * is when u tap/hit the strings w/ ur hand/fingers/face wht ever u like to use the most...

made by ticotaz,

Note:
For this part;

e--------|
B--------|
G--------|
D-----0--|
A--04----|
E--------|


take a look at the video, at time, 1:10 - 1:16

idk wht simbl to put for that, so take a look. hope this helps anyone !!

GBU guys
Suggest correction
comments
print report bad tab
4 comments total. Showing first comments.
-1 reply
bmvisser 10 Mar 21, 2008 07:22 PM

its pretty good, you're right the guy doesn't show much plucking, but its easy to figure out, just need to listen a bit, anyways nice job dude

0 reply
bmvisser 10 Mar 21, 2008 07:25 PM

wait never mind buddy what was i thinking, if you're going to write capo 2 or 3 you have to write it like this
e|---------
B|--3*3----
G|--2*2----
D|0--------
A\ ...

0 reply
Arcania 10 Aug 02, 2013 09:47 AM

That Isn't close guys... Without a Capo it sounds a lot more like this.... Notice the High G# and the Open E
e|---0----0---0-
B|---9----9---9-
G|-------------
D|------9------
A|-7----7---7--
E|-------------

guest
Wanna post a correction for this tab? Suggest correction