Oops, an error
Loading. Please wait.

Im Not Who I Was Tab

version 2
version 2

Whole song

Interactive

45,960 views 21 this week
7 commentsread comments
1 2 3 4 5
excellent!
x 29
add to favorites
launch autoscroll
font size
0
reset
how to read this tab
guitar tuner
Autoscroll
slow
fast
+/-
esc
set tempo
stop
Help us to improve Ultimate-Guitar.com Take our survey!
×
Difficulty
Capo
intermediate
2nd fret
||I’m Not Who I was||
||By Brandon Heath||

Capo 2

Note:
Verses may all look the same as well as the chords, but there is minor difference in 
verse and chords, so read carefully

Intro

e|---2---2---2---0---0---0---0----------0---0---0-------3---3---3----------|
B|---3---3---3---3---3---3---3----------3---3---3-------3---3---3----------|
G|-------------------------------------------------------------------------|
D|-0---0---0---0---2---2---2------0-0h2---2---2---2p0----------------0-----|
A|-----------------------------0h2----------------------------2---0h2------|
E|----------------------------------------------------3---3--(3)-----------|
X2

Verse 1
X1 “I wish you could see me now…”       x2 “Use to be mad at you…”

e|---2---2---2---0---0---0---0----------0---0---0-------3---3---3----------|
B|---3---3---3---3---3---3---3----------3---3---3-------3---3---3----------|
G|-------------------------------------------------------------------------|
D|-0---0---0---0---2---2---2------0-0h2---2---2---2p0-----------------0----|
A|-----------------------------0h2--------------------------------0h2------|
E|----------------------------------------------------3---3---3------------|
X2

Chorus 1
“Found my way around to forgiving you…”

e|---2---2---2---2---2---2---2---3---3---3---3---3---3---3---3---3---------|
B|---3---3---3---3---3---3---3---3---3---3---3---3---3---3---3---3---------|
G|-------------------------------------------------------------------------|
D|-------------------------------------------------------------------------|
A|-2---2---2---2-----------------------------------------------------------|
E|-----------------2---2---2---2---3---3---3---3---3---3---3---3-----------|

e|---3---3---3---3-2~~~~~~~~-----------------------------------------------|
B|---3---3---3---3---------------------------------------------------------|
G|-------------------------------------------------------------------------|
D|--------------------------------0----------------------------------------|
A|-3---3---3---3---------------2h3--2--------------------------------------|
E|-------------------------------------------------------------------------|


“so…”

e|---2---2---2---0---0---0---0----------0---0---0-------3---3---3----------|
B|---3---3---3---3---3---3---3----------3---3---3-------3---3---3----------|
G|-------------------------------------------------------------------------|
D|-0---0---0---0---2---2---2------0-0h2---2---2---2p0----------------0-----|
A|-----------------------------0h2----------------------------2---0h2------|
E|----------------------------------------------------3---3----------------|

Verse 2
1x “I found us in a photograph…”         x2 “You were there, you were right above me…”

e|---2---2---2---0---0---0---0----------0---0---0-------3---3--------------|
B|---3---3---3---3---3---3---3----------3---3---3-------3---3--------------|
G|-------------------------------------------------------------------------|
D|-0---0---0---0---2---2---2------0-0h2---2---2---2p0----------------0-----|
A|-----------------------------0h2-------------------------------0h2-------|
E|----------------------------------------------------3---3---3~-----------|
X2

Chorus 2
“When the pain came back again…”

e|---2---2---2---2---2---2---2---3---3---3---3---3---3---3---3---3---------|
B|---3---3---3---3---3---3---3---3---3---3---3---3---3---3---3---3---------|
G|-------------------------------------------------------------------------|
D|-------------------------------------------------------------------------|
A|-2---2---2---2-----------------------------------------------------------|
E|-----------------2---2---2---2---3---3---3---3---3---3---3---3-----------|

e|---3---3---3---3-2~------------------------------------------------------|
B|---3---3---3---3---------------------------------------------------------|
G|-------------------------------------------------------------------------|
D|-------------------------------------------------------------------------|
A|-3---3---3---3---3p2-3h5-3p2---------------------------------------------|
E|-----------------------------3h5-----------------------------------------|


“Hmm…hmm…hmm…”

e|---2---2---2---0---0---0---0----------0---0---0-------3---3--------------|
B|---3---3---3---3---3---3---3----------3---3---3-------3---3--------------|
G|-------------------------------------------------------------------------|
D|-0---0---0---0---2---2---2------0-0h2---2---2---2p0-----------------0----|
A|-----------------------------0h2----------------------------2----0h2-----|
E|----------------------------------------------------3---3----------------|

Verse 3
1x “Thinkin’ it’s a funny thing…”               2x “Write about love and such…”

e|---2---2---2---0---0---0---0----------0---0---0-------------|------------|
B|---3---3---3---3---3---3---3----------3---3---3-------------|------------|
G|------------------------------------------------------------|------------|
D|-0---0---0---0---2---2---2------0-0h2---2---2---2p0---------|---------0--|
A|-----------------------------0h2----------------------------|----0-0h2---|
E|----------------------------------------------------3~~~~~~~|-2h3--------|
X2

Chorus 3
“I was thinking maybe…”

e|---2---2---2---2---2---2---2---3---3---3---3---3---3---3---3---3---------|
B|---3---3---3---3---3---3---3---3---3---3---3---3---3---3---3---3---------|
G|-------------------------------------------------------------------------|
D|-------------------------------------------------------------------------|
A|-2---2---2---2-----------------------------------------------------------|
E|-----------------2---2---2---2---3---3---3---3---3---3---3---3-----------|

e|---3---3---3-2~~~~~~~~---------------------------------------------------|
B|---3---3---3-------------------------------------------------------------|
G|-------------------------------------------------------------------------|
D|-------------------------------------------------------------------------|
A|-3---3---3---3~~---------------------------------------------------------|
E|--------------------------2----------------------------------------------|


“Hello…”

e|---2---2---2---2---0---0---0----------0---0---0-------3---3--------------|
B|---3---3---3---3---3---3---3----------3---3---3-------3---3--------------|
G|-------------------------------------------------------------------------|
D|-0---0---0---0---2---2---2------0-0h2---2---2---2p0-----------------0----|
A|-----------------------------0h2----------------------------2----0h2-----|
E|----------------------------------------------------3---3----------------|
X2

Chorus 4
“What the thing I find the most amazing…”

e|---2---2---2---2---2---2---2---3---3---3---3---3---3---3---3---3---------|
B|---3---3---3---3---3---3---3---3---3---3---3---3---3---3---3---3---------|
G|-------------------------------------------------------------------------|
D|-------------------------------------------------------------------------|
A|-2---2---2---2-----------------------------------------------------------|
E|-----------------2---2---2---2---3---3---3---3---3---3---3---3-----------|

e|---3---3---3-----2~~~~~~~~~~~~-------------------------------------------|
B|---3---3---3-------------------------------------------------------------|
G|-------------------------------------------------------------------------|
D|-------------------------------------------------------------------------|
A|-3---3---3---3~~---------------------------------------------------------|
E|-------------------------------------------------------------------------|

Ending
“I wish you could see me now. I wish I could show you how…”

e|---2---2---2---0---0---0---0----------0---0---0--------------------------|
B|---3---3---3---3---3---3---3----------3---3---3--------------------------|
G|-------------------------------------------------------------------------|
D|-0---0---0---0---2---2---2------0-0h2---2---2---2p0----------------------|
A|-----------------------------0h2-------------------2~~~~~~~~-------------|
E|-------------------------------------------------------------------------|


|h = hammer-on
|p = pull-off
|~ = Hold-let sound ring until note change
Suggest correction new What's this?
You can suggest a correction to this tab. Community and Mods will review your correction and vote to approve or reject it.
comments
print report bad tab
7 comments total. Showing first comments.
0 reply
Bothrops 11 wrote on July 3 2008, 11:12 am

greate work man ^^ five stars =D

0 reply
RelientK_V_Fan 167 wrote on August 28 2008, 07:50 am

Nice tab that's awsome

0 reply
freewilly2121 22 wrote on September 16 2008, 09:55 pm

nice job love this song herd it on the radio like 10 times but for some reason i coulnt remember the name lol
def 5*
good work

guest
You may want to rate the tab now too:
select rating
Please do not post tabs as comments. Select "correction" instead!