Oops, an error
Loading. Please wait.

Love Never Fails Chords

version 1
version 1

Whole song

203,459 views 321 this week
6 commentsread comments
1 2 3 4 5
excellent!
x 40
add to favorites
launch autoscroll
font size
0
reset
transpose
0
reset
simplify chords
- display chords -
guitar tuner
Tab Pro tools
  • play this tab
  • loop segment
  • change instrument
  • show fretboard
  • metronome
Autoscroll
slow
fast
+/-
esc
set tempo
stop
Contributor
------------------------------------
Love Never Fails
By: Brandon Heath
------------------------------------

Hey Everyone, this song is a major blessing, thank you Brandon Heath! I saw nobody had 
the chords out there yet... so here they are.

God Bless.

:)

-Josh Anderson

[Capo 1st Fret]

C= 032010
D/F#= 200232
G= 320033
C*= 032030
D*= 054030

On the verses the C and D/F# chords are picked out as follow:

e-----------------------------------|
b-----1----0------------------------|
g--------------------------0--------|  2X
d---------------0--0-2h--------2----|
a-----3-----------------------------|
E-----------------------------------|

then...

e--------------------------------------------------|
b-----1----0---------------------------------------|
g--------------------------0-------0----2-------2--|
d---------------0--0-2h--------0------------0------|
a-----3--------------------------------------------|
E-----3------------------------3--------2----------|


C
Love is not proud
C
Love does not boast
C
Love after all
            D/F#
Matters the most


C
Love does not run
C
Love does not hide
C
Love does not keep
       D/F#
Locked inside


Em          D/F#        G     C*
Love is the river that flows through
C          D/F#  C
Love never fails you


C
Love will sustain
C
Love will provide
C
Love will not cease
              D/F#
At the end of time


C
Love will protect
C
Love always hopes
C
Love still believes
         D/F#
When you don’t


Em          D/F#          G       C*
Love is the arms that are holding you
C          D     C
Love never fails you


[Next section: strum out C-chord and D-chord = 054030]

C                          D*
When my heart won’t make a sound
C                      D*
When I can’t turn back around
Em                      D/F#
When the sky is falling down
           C
Nothing is greater than this
 C
Greater than this


C
Love is right here
C
Love is alive
C
Love is the way
              D/F#
The truth the life


Em          D/F#        G      C*
Love is the river than flows through
Em          D/F#          G       C*
Love is the arms that are holding you
Em          D/F#           G   C
Love is the place you will fly to
(voice only)      C (pick out)   G
Love never fails you
comments
print report bad tab
6 comments total. Showing first comments.
+2 reply
jwander wrote on November 12 2008, 02:20 pm

Hey everyone, I made a mistake. When playing the verse, the third time the C-Chord is picked out, there is a G-bass note as well. So it goes like this:

e--------------------------------------------------|
b-----1----0---------------------------------------|
g--------------------------0-------0----2-------2--|
d---------------0--0-2h--------0------------0------|
a-----3--------------------------------------------|
E-----3------------------------3--------2----------|

+1 reply
jirgal wrote on March 15 2009, 03:44 pm

dude you are the man! this is awesome. do you think you could do this for brandon heath's sunrise? its a great song but unfortunately theres not a lot of good tabs out there...

0 reply
jwd724 wrote on November 11 2009, 09:05 pm

The C* chord is Cadd9, more or less. Just fyi

I want to post or [tab]
guest
You may want to rate the tab now too:
select rating
Please do not post tabs as comments. Select "correction" instead!