Oops, an error
Loading. Please wait.

Love Never Fails Tab

version 3
version 3

Intro

9,459 views 9 this week
3 commentsread comments
1 2 3 4 5
accurate
x 2
add to favorites
launch autoscroll
font size
0
reset
how to read this tab
guitar tuner
Tab Pro tools
  • play this tab
  • loop segment
  • change instrument
  • show fretboard
  • metronome
Autoscroll
slow
fast
+/-
esc
set tempo
stop
Contributor
Difficulty
intermediate
-----------------------------------------------------------------------------
                      Love Never Fails - Brandon Heath
-----------------------------------------------------------------------------
Tabbed by: Scott F
Email: guitarskoota@hotmail.com

Tuning: Standard Tuning with a Capo on the first fret

Hey guys and gals.  I really like this song.  It is very emotional and spiritual and 
me up every time I hear it.  I couldn't find fully accurate tabs, so I tabbed it out by ear.
-Enjoy!

Chords:
Em           - 022000
D/F#         - 200232
G            - 320033
C            - x3201x
E m9(no 5th) - x5403x

---------------------
Verse:
There are 2 parts to the verse.  Generally it is 2 of the first part and 1 of the 2nd 
 There are a few points where it plays the first part more than 2x in a row.  You can pick 
if you listen to the song.

e|--------------------------------|  x2
B|---1---0----------------0-------|
G|-----------0---0---2h-------2---|
D|--------------------------------|
A|--------------------------------|
E|---3----------------------------|

e|------------------------------------------------|
B|---1---0----------------0-----------------------|
G|-----------0---0---2h-----------0---2-------2---|
D|----------------------------0-----------0-------|
A|------------------------------------------------|
E|---0------------------------3-------2-----------|

---------------------
Chorus:
Listen to the song to figure out the strumming pattern

     Em            D/F#          G   G   C           C          D/F#
e|---x---x-x-x-x---x---x-x-x-x---x---3---x-----------x----------x---------|
B|---x---x-x-x-x---x---x-x-x-x---x---3---1-----------1----------3---------|
G|---0---0-0-0-0---2---2-2-2-2---0---0---0-----------0----------2---------|
D|---2---2-2-2-2---0---0-0-0-0---0---0---2-----------2----------0---------|
A|---2---2-2-2-2---0---0-0-0-0---2---x---3-----------3----------0---------|
E|---0---0-0-0-0---2---2-2-2-2---3---x---x-----------x----------2---------|
     Love  is  a   river  that   flows   through     Love never fails you
     Love  is the  arms that are holding you         Love never fails you

---------------------
Bridge:
Listen to the song to figure out the strumming pattern

     C          E m9(no 5th)
e|---x---x------x---x---|  x3
B|---x---1------x---3---|
G|---x---0------x---0---|
D|---2---2------4---4---|
A|---3---3------5---5---|
E|---x---x------x---x---|

     Em         D/F#       C
e|---x---x------x---x------x---x---|
B|---x---x------3---3------1---1---|
G|---0---0------2---2------0---0---|
D|---2---2------0---0------2---2---|
A|---2---2------0---0------3---3---|
E|---0---0------2---2------x---x---|
comments
We did not receive enough feedback on this tab! Please rate:
print report bad tab
1 2 3 4 5
3 comments total.
0 reply
thegeniusboy05 wrote on June 29 2010, 01:27 am

This would be the most accurate tab on this site, by far. But, the first 2 notes in each of your riffs is off by a string. Probably a typo. Anyways, it should be:


e|--------------------------------| x2
B|---1---0----------------0-------|
G|-----------0---0---2h-------2---|
D|--------------------------------|
A|--------------------------------|
E|---3----------------------------|

e|------------------------------------------------|
B|---1---0----------------0-----------------------|
G|-----------0---0---2h-----------0---2-------2---|
D|----------------------------0-----------0-------|
A|------------------------------------------------|
E|---0------------------------3-------2-----------|

0 reply
guitarskoota wrote on September 5 2010, 04:07 pm

First 2 bars should read

e|--------------------------------| x2
B|---1---0----------------0-------|
G|-----------0---0---2h-------2---|
D|--------------------------------|
A|--------------------------------|
E|---3----------------------------|

e|------------------------------------------------|
B|---1---0----------------0-----------------------|
G|-----------0---0---2h-----------0---2-------2---|
D|----------------------------0-----------0-------|
A|------------------------------------------------|
E|---0------------------------3-------2-----------|

My bad on the typo, thanks for pointing it out thegeniusboy05

0 reply
PraiseNWorship wrote on September 1 2015, 09:08 am

It seems like your G string fingering should be on the D string in the intro, that may need fixing. Other than that, great tab!

I want to post or [tab]
guest
You may want to rate the tab now too:
select rating
Please do not post tabs as comments. Select "correction" instead!