Oops, an error
Loading. Please wait.

Love Never Fails Tab

version 4
version 4
2,101 views 3 this week
1 commentread comment
1 2 3 4 5
please rate
add to favorites
launch autoscroll
font size
0
reset
how to read this tab
guitar tuner
Tab Pro tools
  • play this tab
  • loop segment
  • change instrument
  • show fretboard
  • metronome
×
Best way to learn
"Love Never Fails"
Autoscroll
slow
fast
+/-
esc
set tempo
stop
Difficulty
intermediate

    Love never fails by Brandon Heath
    Tabed by Jason SIkes
    This is my own version I came up with.

     h = hamer on
     p = pull off
     / = slide forward
     \ = slide backward
     b = bend
     r = release bend




              intro

E-------------------------------------------------------------|
B--1-----------------1----------------1-----------------1-----|
G----0---------0-------0---------0------0---------0---2-------|
D------2---0h2-----------2---0h2----------2---0h2---3---------|
A--3-----------------3----------------3-----------------------|
E-------------------------------------------------------------|



              verse 1

E--------------------------------------------------------------------------|
B--1-------------------1------------------------1----------------1---------|
G----0---------0---------0---------0--------------0---------0---2----------|
D------2---0h2-------------2---0h2------------------2---0h2---3------------|
A--3-------------------3------------------------3--------------------------|
E--------------------------------------------------------------------------|

Love is not proud      Love does not boast      Love after all matters the
                                                most


Love does not run      Love does not hide       Love does not keep locked
                                                inside



Em          d/f#         G      C       C          D/f#  C
Love is the river that flows through,  Love never fails you.



Play intro one more time, and keep playing it
trough out the rest of the verses.

                    Then play this for the prelude.
                             (Strum)

 Em                          D      C                       D
When my heart won't make a sound,  When I can't turn back around,

 Em                      d/f#              C
When the sky is falling down, nothing is greater than this,

   C
greater than this.


                 then play another verse and the outro

 Em          d/f#        G      C      Em          d/f#            G      C
Love is the river that flows through, Love are the arms that are holding you

     Em          d/f#           G  C  (voice only) C
And Love is the place you will fly to, Love never fails you.

               Pick out C to G...


     Hope you like it. please comment at j.sikes23028@gmail.com

                      Thanks, and have fun.
comments
We did not receive enough feedback on this tab! Please rate:
print report bad tab
1 2 3 4 5
1 comment total.
0 reply
~LΣGACY~ wrote on May 20 2011, 03:34 pm

it's an...ok....base to start off on but there is so much missing

I want to post or [tab]
guest
You may want to rate the tab now too:
select rating
Please do not post tabs as comments. Select "correction" instead!