Oops, an error
Loading. Please wait.

Love Never Fails Tab

version 5
version 5
11,987 views 15 this week
5 commentsread comments
1 2 3 4 5
excellent!
x 10
add to favorites
launch autoscroll
font size
0
reset
how to read this tab
guitar tuner
Tab Pro tools
  • play this tab
  • loop segment
  • change instrument
  • show fretboard
  • metronome
×
Best way to learn
"Love Never Fails"
Autoscroll
slow
fast
+/-
esc
set tempo
stop
Contributor
Difficulty
Capo
intermediate
1st fret
Capo 1

 2X
e|---------------------------------------------------------------------------|
B|-1---0------h1---------------1---0------h1--------------1--0---------------|
G|-0---------------0-----------0---------------0--------------------------0--|
D|--------0--0h2-------2--------------0--0h2-------2-------------0---0h2-----|
A|-------------------------------------------------------------------3-------|
E|-3---------------------------3--------------------------0------------------|


e|------------------.--------------------------------------------------------|
B|------------------.---------0---------0-------0-----------1--0----3--------|
G|----0-----2-----2-.---0---------2--------0--------0-----0------------------|
D|-0-----0-----0----.------2---------0--------0-----2-----2---------4--------|
A|------------------.-------------------------------3-----3---------5--------|
E|-3--------2-------.---0---------2--------3---------------------------------|


e|---------------------------------------------------------------------------|
B|-1---0------h1---------------1---0------h1---------------------------------|
G|-0---------------0-----------0---------------0-----------------------------|
D|--------0--0h2-------2--------------0--0h2-------2-------------------------|
A|---------------------------------------------------------------------------|
E|-3---------------------------3---------------------------------------------|


 2X
e|---------------------------------------------------------------------------|
B|-1---0------h1---------------1---0------h1--------------1--0---------------|
G|-0---------------0-----------0---------------0--------------------------0--|
D|--------0--0h2-------2--------------0--0h2-------2-------------0---0h2-----|
A|-------------------------------------------------------------------3-------|
E|-3---------------------------3--------------------------0------------------|


e|------------------.--------------------------------------------------------|
B|------------------.---------0---------0-------0-----------1--0----3--------|
G|----0-----2-----2-.---0---------2--------0--------0-----0------------------|
D|-0-----0-----0----.------2---------0--------0-----2-----2---------4--------|
A|--------------------------------------------------3-----3---------5--------|
E|-3--------2-------.---0---------2--------3---------------------------------|

Strum:
  C    Dadd9  C    Dadd9  C    Dadd9  C   Dadd9   C    Dadd9  EM   D/F#  G  C
e|0-----0-----0-----0-----0-----0-----0-----0-----0-----0-----0-----2----2--0-|
B|1-----3-----1-----3-----1-----3-----1-----3-----1-----3-----0-----3----2--1-|
G|0-----0-----0-----0-----0-----0-----0-----0-----0-----0-----0-----2----0--0-|
D|2-----4-----2-----4-----2-----4-----2-----4-----2-----4-----2-----0----0--2-|
A|3-----5-----3-----5-----3-----5-----3-----5-----3-----5-----2-----0----2--3-|
E|x-----x-----x-----x-----x-----x-----x-----x-----x-----x-----0-----2----3--x-|


e|---------------------------------------------------------------------------|
B|-1---0------h1---------------1---0------h1--------------1--0---------------|
G|-0---------------0-----------0---------------0--------------------------0--|
D|--------0--0h2-------2--------------0--0h2-------2-------------0---0h2-----|
A|-------------------------------------------------------------------3-------|
E|-3---------------------------3--------------------------0------------------|


e|------------------.--------------------------------------------------------|
B|------------------.---------0---------0-------0----------------0---------0-|
G|----0-----2-----2-.---0---------2--------0--------0-----0----------2-------|
D|-0-----0-----0----.------2---------0--------0-----2--------2----------0----|
A|--------------------------------------------------3------------------------|
E|-3--------2-------.---0---------2--------3--------------0----------2-------|


e|---------------------------------------------------------------------------|
B|--------0---------------0-----------0----------0---------1--0----3---------|
G|--0---------0----0-----------2----------0---------0----0-------------------|
D|-----0------2-------2-----------0----------0------2----2---------4---------|
A|------------3-------------------------------------3----3---------5---------|
E|--3--------------0-----------2----------3----------------------------------|

                                                          G
e|--------------------------------------------------------x-|
B|-1---0------h1---------------1---0------h1--------------x-|
G|-0---------------0-----------0---------------0----------0-|
D|--------0--0h2-------2--------------0--0h2-------2------0-|
A|--------------------------------------------------------2-|
E|-3---------------------------3--------------------------3-|
comments
print report bad tab
5 comments total. Showing first comments.
0 reply
ImmatureAthlete wrote on July 14 2012, 03:40 pm

Beautiful song...excellent tab.

+4 reply
Fortune090 wrote on August 5 2012, 08:37 pm

Quick note listening and playing to the song a bit more: The hammer on from 0 to 2 on B and D should be a hammer on to 1 on B and 2 on D. C# isn't in this key. ;) Other than that, flawless tab, thank you very much!

ex.:
e|-----------------------
B|-1---0------h1---------
G|-0---------------0-----...
D|--------0--0h2-------2-
A|-----------------------
E|-3---------------------

+1 reply
tydubs wrote on February 1 2014, 10:00 pm

the D/F# sounds better as a C

I want to post or [tab]
guest
You may want to rate the tab now too:
select rating
Please do not post tabs as comments. Select "correction" instead!