Oops, an error
Loading. Please wait.

Trust You Tab

2,609 views 1 this week
no commentswrite comment
1 2 3 4 5
x 4
add to favorites
launch autoscroll
font size
0
reset
how to read this tab
guitar tuner
Autoscroll
slow
fast
+/-
esc
set tempo
stop
Help us to improve Ultimate-Guitar.com Take our survey!
×
Author
hey guys this is trust you by brandon heath. i love this song and its pretty easy. hope 
all enjoy.



      Em      D          C       G
   |-------------------------------3-3----3-3-|
   |------8-8------7-7-----5-5-----x-x----3-3-|
   |------9-9------7-7-----5-5-----4-4----4-4-|
   |--9-9-9-9--7-7-7-7-5-5-5-5-----5-5-or-5-5-|
   |--7-7-7-7--5-5-5-5-3-3-3-3-5-5-5-5----5-5-|
   |---------------------------3-3-3-3----3-3-|


chorus: listen to song for strumming pattern. i make my own.


   |-----------------------------------|
   |-----------------------------------|
   |-----7-5-----7-5-----7-5---7-5---7-|
   |-2-5-7-5-2-5-7-5-2-5-7-5-5-7-5-5-7-|
   |-2-5-5-3-2-5-5-3-2-5-5-3-5-5-3-5-5-|
   |-0-3-5-3-0-3-5-3-0-3-5-3-3-5-3-3-5-|
                OR
 Em            G            D   C Em           G               D     C
 im not gonna fight you any more. im not gonna try to lock the door.
 Em            G                 D                            C G D
 you took your life and gave me yours. there's no good reason why.
                           C G D
 i shouldnt trust you with mine.


bridge:
   |-------------------|
   |-------------------|
   |-----7-----7-----7-|
   |-7-5-7-7-5-7-7-5-7-|
   |-7-5-5-7-5-5-7-5-5-|
   |-5-3-5-5-3-5-5-3-5-|


then go back to the chorus and end with the intro. have fun! plz rate and enjoy!

                                 xAlwaysx
Suggest correction
comments
print report bad tab
guest
You may want to rate the tab now too:
select rating
Wanna post a correction for this tab? Suggest correction