Oops, an error
Loading. Please wait.

Miss Perfect Chords

657 views 1 this week
2 commentsread comments
1 2 3 4 5
2 more votes to show rating
add to favorites
launch autoscroll
font size
0
reset
transpose
0
reset
simplify chords
display chords
guitar tuner
Autoscroll
slow
fast
+/-
esc
set tempo
stop
Help us to improve Ultimate-Guitar.com Take our survey!
×
Author
Difficulty
Capo
intermediate
1st fret
This is a song by Brandon Setta
It's taken from the Title Fight / Brandon Setta split (Brandon did the 1st 3 songs, 
Jamie Rhoden did the last 3)

Capo 1st fret

C                            Am
You look so pretty in your sleep

Am                            Dm
Tell me, are you dreaming of me?

Dm                G7                               C
Or do you dream about the way that things used to be?

C                  Am
It never was this bad

Am                 Dm                               G7
And I was good at more than just always making you sad


Chorus:

Am
I know I told you that

     E
If you'd just stay with me

              F
things would be fine

G7                C   Cmaj9/B
Until the end of time

Am                             E
But you know there's no such thing

              F          G7                C
As a promise ring that doesn't lose it's shine


End Fill:              C7
e|---------------------0----------------------------------------------------|
B|---------------------1----------------------------------------------------|
G|---------------------3----------------------------------------------------|
D|---------------------2----------------------------------------------------|
A|-----------0-2-0-3---3----------------------------------------------------|
E|-----0-1-3-----------x----------------------------------------------------|


This is pretty much a perfect tab I think, but if there are mistakes feel free to 
message them and I'll change as needed :)  Enjoy!
Suggest correction
Give kudos to tab author, rate the tab!
1 2 3 4 5
comments
print report bad tab
2 comments total.
0 reply
D3S7RO 32 Feb 21, 2013 11:24 AM

btw that C/B i couldn't think of the name for the chord, but it's supposed to be what's pictured below. Also the very last note of the song might be C7, C & C7 both sound right, but I just learned this song yesterday, I'm still not sure.

C/B C7
e|---0------------------0-----------------------|
B|---1------------------1-----------------------|
G|---0------------------3-----------------------|
D|---0------------------2-----------------------|
A|---2------------------3-----------------------|
E|---x------------------x-----------------------|

0 reply
D3S7RO 32 Mar 02, 2013 12:23 PM

Disregard my previous comment, didn't realize I could just resubmit the tab and it fixes it. The adjustments have already been made to the tab! :)

guest
You may want to rate the tab now too:
select rating
Wanna post a correction for this tab? Suggest correction