Oops, an error
Loading. Please wait.

Love Can Go To Hell chords

1,840 views 21 this week
no commentswrite comment
1 2 3 4 5
x 10
add to favorites
×
Save as Personal and add changes to this tab that will be seen only by you. Learn more ›
×
You can save this tab as Personal to edit and correct it or add notes. All changes will be seen only by you. Learn more »
launch autoscroll
font size
0
reset
transpose
0
reset
display chords
guitar tuner
edit
Autoscroll
slow
fast
+/-
esc
set tempo
stop
Strumming
There is no strumming pattern for this song yet. and get +5 IQ
SONG:   LOVE CAN GO TO HELL
ARTIST: BRANDY CLARK
TAB BY: DON CZARSKI
EMAIL:  GUITARZAN7@HOTMAIL.COM

NOTE: Two guitars play this song. 
      Brandy Clark uses a capo on the 5th fret.
      The guy playing the main riff uses no capo.
      I have included versions below of the guitar 
      without a capo and capoed at the 5th fret.


                   LOVE CAN GO TO HELL
                       BRANDY CLARK

CAPO: NONE

INTRO:
(SINGLE STRUM)
    F   G  

THEN:
    C                    Am                  Dm     
E -------8---------8--|-------8---------8--|-12-10-8-7-----|
B --8-10--10--8-10----|--8-10--10--8-10----|-----------10--|
G --------------------|--------------------|---------------|
D --------------------|--------------------|---------------|
A --------------------|--------------------|---------------|
E --------------------|--------------------|---------------|

    Am
E -------8-----------8---------8-----------8-----
B --8-10---10---8-10--10---8-10--10---8-10--10---
G -----------------------------------------------
D -----------------------------------------------
A -----------------------------------------------
E -----------------------------------------------

    F                    C                   Dm      Am
E -------8---------8--|-------8---------8--|-12-10-8-7-----|
B --8-10--10--8-10----|--8-10--10--8-10----|-----------10--|
G --------------------|--------------------|---------------|
D --------------------|--------------------|---------------|
A --------------------|--------------------|---------------|
E --------------------|--------------------|---------------|

VERSE:
 C
Love can go to your head

Like a shot of somethin' strong
 Am
Love can go to your bed

And stay there all night long
 F
Love can go on and on
        Am
Like a Sunday morning sparrow
 Dm
Love can to your heart
        Am           Am    F
Like a sweet-talkin' arrow-ow


CHORUS:
N.C.            C
Love can go to hell

In a broken-heartbeat minute
 Am
That's where I am without you in it
F                   Am                Dm
Every day is just another night by myself

                C
Love can go to hell

Like roses in a vase of whiskey
 Am
Dyin' for the way you used to kiss me
 F              C             Dm  Em
Heaven knows, I only wish you well
         F
Oh, but love, 
       G              Am  C  Dm 
Yeah, love can go to hell

    Am                   C                   Dm      
E -------8---------8--|-------8---------8--|-12-10-8-7-----|
B --8-10--10--8-10----|--8-10--10--8-10----|-----------10--|
G --------------------|--------------------|---------------|
D --------------------|--------------------|---------------|
A --------------------|--------------------|---------------|
E --------------------|--------------------|---------------|


VERSE:
C              
I can go to church

And fold these idle hands
Am
I can go to work

Call some friends, make some plans
F
I can get drunk on a Saturday night
            Am
And try to fall for someone new
       Dm
But I just wake up hungover
             Am            Am  F  
Cursin' the day I fell for you-ou


CHORUS:
N.C.            C
Love can go to hell

In a broken-heartbeat minute
 Am
That's where I am without you in it
F                   Am                Dm
Every day is just another night by myself

                C
Love can go to hell

Like roses in a vase of whiskey
 Am
Dyin' for the way you used to kiss me
 F              C              Dm  Em  
Heaven knows, I only wish you well

    F
E -------8-----------8---------8-----------8-----
B --8-10---10---8-10--10---8-10--10---8-10--10---
G -----------------------------------------------
D -----------------------------------------------
A -----------------------------------------------
E -----------------------------------------------

    C
E -------8-----------8---------8-----------8-----
B --8-10---10---8-10--10---8-10--10---8-10--10---
G -----------------------------------------------
D -----------------------------------------------
A -----------------------------------------------
E -----------------------------------------------

    F
E -------8-----------8---------8-----------8-----
B --8-10---10---8-10--10---8-10--10---8-10--10---
G -----------------------------------------------
D -----------------------------------------------
A -----------------------------------------------
E -----------------------------------------------


BREAK:
  Dm
I don't blame you at all
       Am
No, I don't hate you at all
          F   C   F    Em    F
It's all looooooooooooove's fault


CHORUS:
N.C.                 C
 So, love can go to hell

In a broken-heartbeat minute
 Am
That's where I am without you in it
F                   Am                Dm
Every day is just another night by myself

                C
Love can go to hell

Like roses in a vase of whiskey
 Am
Dyin' for the way you used to kiss me
 F              C              Dm  Em
Heaven knows, I only wish you well
         F
Oh, but love, 
       G              C 
Yeah, love can go to hell


OUTRO:
   F              C                  Dm  Em
Forever's just a lie that love will tell
    F           G              F   
So love, yeah, love can go to hell

    F             Am     C             Am    Dm          C   F
E -------8---------8--|-------8---------8--|-12-10-12-10-8-7-8-|
B --8-10--10--8-10----|--8-10--10--8-10----|-------------------|
G --------------------|--------------------|-------------------|
D --------------------|--------------------|-------------------|
A --------------------|--------------------|-------------------|
E --------------------|--------------------|-------------------|



========================= CAPO: 5th FRET ==========================


SONG:   LOVE CAN GO TO HELL
ARTIST: BRANDY CLARK
TAB BY: DON CZARSKI
EMAIL:  GUITARZAN7@HOTMAIL.COM


                   LOVE CAN GO TO HELL
                       BRANDY CLARK


CAPO: 5th FRET

INTRO:
(SINGLE STRUM)
    C   D

THEN:
    G                  Em                Am
E ------3--------3--|------3--------3--|-7-5-3-2----|
B --3-5---5--3-5----|--3-5---5--3-5----|---------5--|
G ------------------|------------------|------------|
D ------------------|------------------|------------|
A ------------------|------------------|------------|
E ------------------|------------------|------------|

    Em
E ------3---------3---------3---------3-----
B --3-5---5---3-5---5---3-5---5---3-5---5---
G ------------------------------------------
D ------------------------------------------
A ------------------------------------------
E ------------------------------------------

    C                  G                 Am    Em
E ------3--------3--|------3--------3--|-7-5-3-2----|
B --3-5---5--3-5----|--3-5---5--3-5----|---------5--|
G ------------------|------------------|------------|
D ------------------|------------------|------------|
A ------------------|------------------|------------|
E ------------------|------------------|------------|


VERSE:
 G
Love can go to your head

Like a shot of somethin' strong
 Em
Love can go to your bed

And stay there all night long
 C
Love can go on and on
        Em
Like a Sunday morning sparrow
 Am
Love can to your heart
        Em           Em    C
Like a sweet-talkin' arrow-ow


CHORUS:
N.C.            C
Love can go to hell

In a broken-heartbeat minute
 Em
That's where I am without you in it
C                   Em                Am
Every day is just another night by myself

                G
Love can go to hell

Like roses in a vase of whiskey
 Em
Dyin' for the way you used to kiss me
 C              G             Am  Bm
Heaven knows, I only wish you well
         C
Oh, but love, 
       D              Em  G  Am
Yeah, love can go to hell

    Em                 G                Am
E ------3--------3--|------3--------3--|-7-5-3-2----|
B --3-5---5--3-5----|--3-5---5--3-5----|---------5--|
G ------------------|------------------|------------|
D ------------------|------------------|------------|
A ------------------|------------------|------------|
E ------------------|------------------|------------|


VERSE:
G
I can go to church

And fold these idle hands
Em
I can go to work

Call some friends, make some plans
C
I can get drunk on a Saturday night
            Em
And try to fall for someone new
       Am
But I just wake up hungover
             Em            Em  C
Cursin' the day I fell for you-ou


CHORUS:
N.C.            C
Love can go to hell

In a broken-heartbeat minute
 Em
That's where I am without you in it
C                   Em                Am
Every day is just another night by myself

                G
Love can go to hell

Like roses in a vase of whiskey
 Em
Dyin' for the way you used to kiss me
 C              G              Am  Bm
Heaven knows, I only wish you well

    C
E ------3---------3---------3---------3-----
B --3-5---5---3-5---5---3-5---5---3-5---5---
G ------------------------------------------
D ------------------------------------------
A ------------------------------------------
E ------------------------------------------

    G
E ------3---------3---------3---------3-----
B --3-5---5---3-5---5---3-5---5---3-5---5---
G ------------------------------------------
D ------------------------------------------
A ------------------------------------------
E ------------------------------------------

    C
E ------3---------3---------3---------3-----
B --3-5---5---3-5---5---3-5---5---3-5---5---
G ------------------------------------------
D ------------------------------------------
A ------------------------------------------
E ------------------------------------------


BREAK:
  Am
I don't blame you at all
       Em
No, I don't hate you at all
          C   G   C    Bm    C
It's all looooooooooooove's fault


CHORUS:
N.C.                 C
 So, love can go to hell

In a broken-heartbeat minute
 Em
That's where I am without you in it
C                   Em                Am
Every day is just another night by myself

                G
Love can go to hell

Like roses in a vase of whiskey
 Em
Dyin' for the way you used to kiss me
 C              G              Am  Bm
Heaven knows, I only wish you well
         C
Oh, but love, 
       D              G
Yeah, love can go to hell


OUTRO:
   C              G                  Am  Bm
Forever's just a lie that love will tell
    C           D              C
So love, yeah, love can go to hell

    C            Em    G           Em    Am      G   C
E ------3--------3--|------3--------3--|-7-5-7-5-3-2-3-|
B --3-5---5--3-5----|--3-5---5--3-5----|---------------|
G ------------------|------------------|---------------|
D ------------------|------------------|---------------|
A ------------------|------------------|---------------|
E ------------------|------------------|---------------|

            
            
Suggest correction
Creating personal tab
Creating personal tab
You can edit any tab online and save it as your Personal.

You can edit, replace or remove any tab part or add personal notes – all changes will be seen only by you.

Personal tabs can be accessed anytime from any device, even offline.
Learn more »
comments
print report bad tab
guest
You may want to rate the tab now too:
select rating
Wanna post a correction for this tab? Suggest correction