Oops, an error
Loading. Please wait.

Low Desert Punk tab

version 1
version 1

Whole song

Interactive

7,652 views 9 this week
2 commentsread comments
1 2 3 4 5
x 3
add to favorites
×
Save as Personal and add changes to this tab that will be seen only by you. Learn more ›
×
You can save this tab as Personal to edit and correct it or add notes. All changes will be seen only by you. Learn more »
launch autoscroll
font size
0
reset
how to read this tab
guitar tuner
edit
Autoscroll
slow
fast
+/-
esc
set tempo
stop
Brant Bjork - Low desert punk
From the album: Jalamanta
This is an awesome song anyone can play.
Tuning is a half step down

This is the basic riff

Eb----------------------------------------------------------------------------|
Bb----------------------------------------------------------------------------|
Gb----------------------------------------------------------------------------|
Db-9----9----9-9-9----9----9-9-9----9----9-9-9----9----9-9-9------------------|
Ab-7----7----7-7-7----7----7-7-7----7----7-7-7----7----7-7-7------12----12----|
Eb-0----0----0-0-0----0----0-0-0----0----0-0-0----0----0-0-0----7/10----10----|


You can also do stuff like (brant does these sometimes):


Eb----------------------------------------------------------------------------|
Bb----------------------------------------------------------------------------|
Gb----------------------------------------------------------------------------|
Db-9----9----x-x-9----9----x-x-9----9----x-x-9----9----x-x-9------------------|
Ab-7----7----x-x-7----7----x-x-7----7----x-x-7----7----x-x-7------12----12----|
Eb-0----0----x-x-0----0----x-x-0----0----x-x-0----0----x-x-0----7/10----10----|

Or:


Eb----------------------------------------------------------------------------|
Bb----------------------------------------------------------------------------|
Gb----------------------------------------------------------------------------|
Db-9----9----7-9-9----9----7-9-9----9----7-9-9----9----7-9-9------------------|
Ab-7----7----7-7-7----7----7-7-7----7----7-7-7----7----7-7-7------12----10----|
Eb-0----0----0-0-0----0----0-0-0----0----0-0-0----0----0-0-0----7/10----10----|

...And you can improvise endlessly on this riff.

Then comes this part after verses and before the first verse

Eb---------------------------------------------------------------------------------|
Bb---------------------------------------------------------------------------------|
Gb---------------------------------------------------------------------------------|
Db---------------------------------------------------------------------------------|
Ab-19---19---17h19-19---19---17h19-19---19---17h19-19---19---17h19-19---19---17----|
Eb--0----0----0--0--0----0----0--0--0----0----0--0--0----0----0--0--0----0----0----|

Break ("i'm gonna let the stars..."):

Eb------------------------------------------------------------------------------|
Bb------------------------------------------------------------------------------|
Gb------------------------------------------------------------------------------|
Db-9---------------------------9---9---------------------------------9----------|
Ab-7---------------------------7---7---------------------------------7----------|
Eb-0---------------------------0---0---------------------------------0----------|
      "im gonna let..."                  "...and i'm gonna be your slave"


And that's basically what you need to play the song.
Listen to the song and when you get the rythym (and the feeling:D),
you'll never get sick listening and playing it.
This is my first tab, and i'll make correcions for request.
Rock on!:P

            
            
Suggest correction
Creating personal tab
Creating personal tab
You can edit any tab online and save it as your Personal.

You can edit, replace or remove any tab part or add personal notes – all changes will be seen only by you.

Personal tabs can be accessed anytime from any device, even offline.
Learn more »
Give kudos to tab author, rate the tab!
1 2 3 4 5
comments
print report bad tab
2 comments total.
0 reply
Ni7roX 10 May 29, 2011 05:43 PM

i believe it's more like this:

Eb------------------------------------------------------------------------------|
Bb------------------------------------------------------------------------------|
Gb------------------------------------------------------------------------------|
Db-7----7----9----7-7-7----9----7-7-7----9----7-7-7----9----7-7-----------------|
Ab-7----7----7----7-7-7----7----7-7-7----7----7-7-7----7----7-7-----12----12----|
Eb-0----0----0----0-0-0----0----0-0-0----0----0-0-0----0----0-0---7/10----10----|

0 reply
DanielBatty 166 Jul 30, 2011 11:33 AM

I think the guy who posted a couple of months ago is right but great job man.

guest
You may want to rate the tab now too:
select rating
Wanna post a correction for this tab? Suggest correction