Oops, an error
Loading. Please wait.

Play Me That Song intro tab

version 2
version 2

Intro

319 views 3 this week
no commentswrite comment
1 2 3 4 5
1 last vote to show rating
add to favorites
×
Save as Personal and add changes to this tab that will be seen only by you. Learn more ›
×
You can save this tab as Personal to edit and correct it or add notes. All changes will be seen only by you. Learn more »
launch autoscroll
font size
0
reset
how to read this tab
guitar tuner
edit
Autoscroll
slow
fast
+/-
esc
set tempo
stop
-------------------------------------------------------------------------------
                             PLAY ME THAT SONG(INTRO) - Brantley Gilbert
-------------------------------------------------------------------------------
So I realize that this song has been out for a few years now but I think a lot of people 
still want to learn this and I wasn't a huge fan of the other intro tab. It sounded 
close but not quite right
to me. This is how I play it and I think it sounds better. This is my very first tab so 
comment if
you have any adjustments or anything like that!

Tuning: Standard (CAPO on 3)

I learned by listening to this version so listen to it for timing:
https://www.youtube.com/watch?v=62m1L5aQWec

e|-------0---0-0h2---------------------------0-0h2-----------0---------------|
B|-----3---3-------3-------3-----3-------3---------3-------3---2h3p2h3-------|
G|---2-------------------2-----2-------2---2-------------2-------------------|
D|-0-------------------0-----0-------0-----------------0---------------0-----|
A|-------------------4-------------------------------0-----------------------|
E|---------------------------------3-----------------------------------------|

            
            
Suggest correction
Creating personal tab
Creating personal tab
You can edit any tab online and save it as your Personal.

You can edit, replace or remove any tab part or add personal notes – all changes will be seen only by you.

Personal tabs can be accessed anytime from any device, even offline.
Learn more »
Give kudos to tab author, rate the tab!
1 2 3 4 5
comments
print report bad tab
guest
You may want to rate the tab now too:
select rating
Wanna post a correction for this tab? Suggest correction