Oops, an error
Loading. Please wait.

Small Town Throwdown chords

version 4
version 4

Whole song

109 views 1 this week
no commentswrite comment
1 2 3 4 5
2 more votes to show rating
add to favorites
×
Save as Personal and add changes to this tab that will be seen only by you. Learn more ›
×
You can save this tab as Personal to edit and correct it or add notes. All changes will be seen only by you. Learn more »
launch autoscroll
font size
0
reset
transpose
0
reset
display chords
guitar tuner
edit
Autoscroll
slow
fast
+/-
esc
set tempo
stop
Author
Difficulty
About this tab version
The other tabs didn't have the correct chorus so I tried to make it better. This is standard tuning and not drop D but the loss of quality is minimal. Was this info helpful? Yes No
Strumming Is this strumming pattern correct? Yes No
100 bpm
1
&
2
&
3
&
4
&
Listen
Brantley Gilbert- Small Town Throwdown 


[Intro]

   D
e|------------------------------------------|
B|------------------------------------------|
G|------------------------------------------|
D|------------------------------------------|
A|-0h2-3--2-3-2b-------0h2-3--2-3-3b~-------|
E|------------------------------------------|

Oh son

e|------------------------------------------|
B|------------------------------------------|
G|------------------------------------------|
D|------------------------------------------|
A|-0h2-3--2-3-2-3-----0h2-3--2-3-2--5b------|
E|------------------------------------------|

e|------------------------------------------|
B|------------------------------------------|
G|------------------------------------------|
D|------------------------------------------|
A|-0h2-3--2-3-2-3---0h2-3--2p0-2p0---5------|
E|---------------------------------1b-------|


[Verse]

D
Around these parts ain't much to do
D
Except work like a dog 'til Friday
D
Punch that clock, cash that check
D
Raise a little hell 'til Sunday


'Bout that time 

e|------------------------------------------|
B|------------------------------------------|
G|------------------------------------------|
D|------------------------------------------|
A|-0h2-3--2-3-2-3---0h2-3--2p0-2p0---5------|
E|---------------------------------1b-------|

D
There's a party back in the woods tonight
D
Heard it through the redneck grapevine
D
Got a keg of beer and a bunch of girls,
D
Sure enough gonna be a good time


[Chorus]

       D          F
It's a small town throwdown
             G                    A#        C
It's time to tallboy up, let them tailgates down
              D                           F
And man, it's on tonight, ridin' 'til the morning light
           G                       A#         C
Crank that country up loud, it's a small town throwdown

e|------------------------------------------|
B|------------------------------------------|
G|------------------------------------------|
D|------------------------------------------|
A|-0h2-3--2-3-2-3-----0h2-3--2-3-2--5b------|
E|------------------------------------------|

Oh, we 'bout to throwdown, son

e|------------------------------------------|
B|------------------------------------------|
G|------------------------------------------|
D|------------------------------------------|
A|-0h2-3--2-3-2-3---0h2-3--2p0-2p0---5------|
E|---------------------------------1b-------|


[Verse]

D
Now we got a field full of daisy dukes
D
Round here we know how to grow 'em
D
Rockin' little body and long tan legs
D
Sure ain't scared to show 'em, no


Show a little somethin', girl

e|------------------------------------------|
B|------------------------------------------|
G|------------------------------------------|
D|------------------------------------------|
A|-0h2-3--2-3-2-3---0h2-3--2p0-2p0---5------|
E|---------------------------------1b-------|

D
Somebody said them city boys
D
Ridin' around lookin' for some trouble
D
If they bring it 'cross that county line
D
You know there's gonna be a rumble


[Chorus]

       D          F
It's a small town throwdown
             G                    A#        C
It's time to tallboy up, let them tailgates down
              D                           F
And man, it's on tonight, ridin' 'til the morning light
           G                       A#         C
Crank that country up loud, it's a small town throwdown


[Solo]

G   F   D
          C'mon

G   F   E   Eb


[Chorus]

       D          F
It's a small town throwdown
             G                    A#        C
It's time to tallboy up, let them tailgates down
              D                           F
And man, it's on tonight, ridin' 'til the morning light
           G                       A#         C
Crank that country up loud, it's a small town throwdown

       D          F
It's a small town throwdown
             G                    A#        C
It's time to tallboy up, let them tailgates down
              D                           F
And man, it's on tonight, ridin' 'til the morning light
           G                       A#         C
Crank that country up loud, it's a small town throwdown


[Outro]

   D
e|------------------------------------------|
B|------------------------------------------|
G|------------------------------------------|
D|------------------------------------------|
A|-0h2-3--2-3-2-3-----0h2-3--2-3-2--5b------|
E|------------------------------------------|

It's a small town throwdown

e|------------------------------------------|
B|------------------------------------------|
G|------------------------------------------|
D|------------------------------------------|
A|-0h2-3--2-3-2-3---0h2-3--2p0-2p0---5------|
E|---------------------------------1b-------|

D
That's country

************************
|h   hammer-on
|p   pull-off
|b   full bend
| ~   Vibrato
************************

I used standard tuning for this song so it's easier to play instead of Drop D   
so the riff is easier but the last note is an octave higher.
Please comment if you find something to change or add :)
Suggest correction
Creating personal tab
Creating personal tab
You can edit any tab online and save it as your Personal.

You can edit, replace or remove any tab part or add personal notes – all changes will be seen only by you.

Personal tabs can be accessed anytime from any device, even offline.
Learn more »
Give kudos to tab author, rate the tab!
1 2 3 4 5
comments
print report bad tab
guest
You may want to rate the tab now too:
select rating
Wanna post a correction for this tab? Suggest correction