Oops, an error
Loading. Please wait.

Diary tab

version 2
version 2

Whole song

Interactive

by Bread
41,469 views 93 this week
3 commentsread comments
1 2 3 4 5
x 12
add to favorites
×
Save as Personal and add changes to this tab that will be seen only by you. Learn more ›
×
You can save this tab as Personal to edit and correct it or add notes. All changes will be seen only by you. Learn more »
launch autoscroll
font size
0
reset
how to read this tab
guitar tuner
edit
Autoscroll
slow
fast
+/-
esc
set tempo
stop
Author
Difficulty
Unregistered
intermediate
[Intro]
e|----2-------2--|----1-----1----|----0-------0--|---------------|
B|----3-------3--|----1-----1----|----1-------1--|----3-------3--|
G|0-----0 0------|0-----0 0---0--|----------0---0|----4-------4--|
D|---------------|--------------0|---------------|----5-----5----|
A|---------------|---------------|---------------|---------------|
E|---------------|---------------|3-----3 3------|3-----3 3------|

(play Intro once-no lyrics, then Intro twice with words)
I found your diary underneath a tree,
and started reading about me,
The words she written took me by surprise-
You'd never read them in her eyes,

[Chorus 1]
e|----3-----3----|----3-------3--|----2-------2--|----3-----3----|
B|----2-----2----|----0-------0--|----1-------1--|----0-----0----|
G|--------0---0--|--0---0---0---0|--2---2---2---2|--0---0-----0--|
D|2-----2-------2|0-------0------|0-------1------|2-------0------|
A|---------------|---------------|---------------|---------------|
E|---------------|---------------|---------------|--------------3|

e|----0-------0--|----3-------3--|----0-------0--|
B|----1-------1--|----3-------3--|----1-------1--|
G|----------0---0|--0-------0---0|----------0---0|
D|---------------|---------------|---------------|
A|3-----3 3------|--------2------|3-----3 3------|
E|---------------|3-----3--------|---------------|

    (Ending 1)                  (Lead-In Ending)
e|----3-----3---3|              e|----3-------3--|
B|----3-----3---3|              B|----3-------3--|
G|--0------------|              G|--0-------0---0|
D|------------0--|              D|---------------|
A|--------2------|              A|--------2------|
E|3-----3--------|              E|3-----3--------|

They said that she had found
The love she'd waited for,
Wouldn't you know it,
She wouldn't show it.

e|----2-------2--|----1-----1----|----0-------0--|---------------|
B|----3-------3--|----1-----1----|----1-------1--|----3-------3--|
G|0-----0 0------|0-----0 0---0--|----------0---0|----4-------4--|
D|---------------|--------------0|---------------|----5-----5----|
A|---------------|---------------|---------------|---------------|
E|---------------|---------------|3-----3 3------|3-----3 3------|

Then she confronted with her writing there,
Simply pretended not to care,
I passed it off as just in keeping with
her total disconcerting aire,

[Chorus 1]
e|----3-----3----|----3-------3--|----2-------2--|----3-----3----|
B|----2-----2----|----0-------0--|----1-------1--|----0-----0----|
G|--------0---0--|--0---0---0---0|--2---2---2---2|--0---0-----0--|
D|2-----2-------2|0-------0------|0-------1------|2-------0------|
A|---------------|---------------|---------------|---------------|
E|---------------|---------------|---------------|--------------3|

e|----0-------0--|----3-------3--|----0-------0--|
B|----1-------1--|----3-------3--|----1-------1--|
G|----------0---0|--0-------0---0|----------0---0|
D|---------------|---------------|---------------|
A|3-----3 3------|--------2------|3-----3 3------|
E|---------------|3-----3--------|---------------|

    (Ending 1)                  (Lead-In Ending)
e|----3-----3---3|              e|----3-------3--|
B|----3-----3---3|              B|----3-------3--|
G|--0------------|              G|--0-------0---0|
D|------------0--|              D|---------------|
A|--------2------|              A|--------2------|
E|3-----3--------|              E|3-----3--------|

And though she tried to hide,
The love that she denied,
Wouldn't you know it,
She wouldn't show it.

[Chorus 2]
e|----2-------2--|----3-----3----|----0-------0--|----2-------2--|
B|----3-------3--|----0-----0----|----1-------1--|----3-------3--|
G|--2---2---2---2|--0---0-----0--|--0---0---0---0|--2---2---2---2|
D|0-------1------|2-------0------|---------------|0--------------|
A|---------------|---------------|3-------0------|--------3------|
E|---------------|--------------3|---------------|---------------|

e|----3---3------|----0---0------|
B|----0---0------|----1---1------|
G|--0---0---0----|--0---0---0----|
D|------------0--|------------2--|
A|2-------------2|3-------------3|
E|---------------|---------------|

    (Ending 1)                  (Ending 2)
e|----0---0------|           e|----3-------3--|----0-------0----|--|
B|----0---0------|           B|----3-------3--|----1-------1----|--|
G|--2---2--------|           G|--0---0---0---0|--0---0---0---0--|--|
D|---------------|           D|---------------|--------0--------|--|
A|2--------------|           A|--------2------|3----------------|--|
E|---------------|           E|3--------------|-----------------|3-|

And as I go through my life,
I will give to her-my wife,
All the sweet things I can find.

                                       
e|----2-------2--|----1-----1----|----0-------0--|---------------|
B|----3-------3--|----1-----1----|----1-------1--|----3-------3--| (x2)
G|0-----0 0------|0-----0 0---0--|----------0---0|----4-------4--|
D|---------------|--------------0|---------------|----5-----5----|
A|---------------|---------------|---------------|---------------|
E|---------------|---------------|3-----3 3------|3-----3 3------|
        I found your diary underneath a tree,
        And started reading about me,
        The words began to stick and tears to flow,
        The meaning now was clear to see.

[Chorus 1]
e|----3-----3----|----3-------3--|----2-------2--|----3-----3----|
B|----2-----2----|----0-------0--|----1-------1--|----0-----0----|
G|--------0---0--|--0---0---0---0|--2---2---2---2|--0---0-----0--|
D|2-----2-------2|0-------0------|0-------1------|2-------0------|
A|---------------|---------------|---------------|---------------|
E|---------------|---------------|---------------|--------------3|

e|----0-------0--|----3-------3--|----0-------0--|
B|----1-------1--|----3-------3--|----1-------1--|
G|----------0---0|--0-------0---0|----------0---0|
D|---------------|---------------|---------------|
A|3-----3 3------|--------2------|3-----3 3------|
E|---------------|3-----3--------|---------------|

    (Ending 1)                  (Lead-In Ending)
e|----3-----3---3|              e|----3-------3--|
B|----3-----3---3|              B|----3-------3--|
G|--0------------|              G|--0-------0---0|
D|------------0--|              D|---------------|
A|--------2------|              A|--------2------|
E|3-----3--------|              E|3-----3--------|

        The love she'd waited for,
        Was someone else-not me,
        Wouldn't you know it,
        She wouldn't show it.

[Chorus 2]
e|----2-------2--|----3-----3----|----0-------0--|----2-------2--|
B|----3-------3--|----0-----0----|----1-------1--|----3-------3--|
G|--2---2---2---2|--0---0-----0--|--0---0---0---0|--2---2---2---2|
D|0-------1------|2-------0------|---------------|0--------------|
A|---------------|---------------|3-------0------|--------3------|
E|---------------|--------------3|---------------|---------------|

e|----3---3------|----0---0------|
B|----0---0------|----1---1------|
G|--0---0---0----|--0---0---0----|
D|------------0--|------------2--|
A|2-------------2|3-------------3|
E|---------------|---------------|

    (Ending 1)                  (Ending 2)
e|----0---0------|           e|----3-------3--|----0-------0----|--|
B|----0---0------|           B|----3-------3--|----1-------1----|--|
G|--2---2--------|           G|--0---0---0---0|--0---0---0---0--|--|
D|---------------|           D|---------------|--------0--------|--|
A|2--------------|           A|--------2------|3----------------|--|
E|---------------|           E|3--------------|-----------------|3-|

        And as I go through my life,
        I will wish for her-his wife,
        All the sweet things she can find,
        All the sweet things they can find.
Suggest correction
Creating personal tab
Creating personal tab
You can edit any tab online and save it as your Personal.

You can edit, replace or remove any tab part or add personal notes – all changes will be seen only by you.

Personal tabs can be accessed anytime from any device, even offline.
Learn more »
comments
print report bad tab
3 comments total.
0 reply
coolboyaq 10 Sep 21, 2007 08:42 PM

Cool tab!!!
I like it!!

0 reply
concluey 30 Jan 22, 2009 08:36 PM

nice^^
but is kinda hard to play^^

0 reply
dsman444 54 Jul 23, 2016 08:01 PM

Excellent tab. What a great contribution!

guest
Wanna post a correction for this tab? Suggest correction