Oops, an error
Loading. Please wait.

Everything I Own bass

version 1
version 1

Whole song

Interactive

by Bread
2,600 views 18 this week
1 commentread comment
1 2 3 4 5
2 more votes to show rating
add to favorites
×
Save as Personal and add changes to this tab that will be seen only by you. Learn more ›
×
You can save this tab as Personal to edit and correct it or add notes. All changes will be seen only by you. Learn more »
launch autoscroll
font size
0
reset
guitar tuner
edit
Autoscroll
slow
fast
+/-
esc
set tempo
stop
Author
-----------------------------------------------------------------------------
                          EVERYTHING I OWN - Bread
-----------------------------------------------------------------------------

Tabbed by: Matt Broback
E-mail: 37hambone@gmail.com

Tuning: E A D G

s = sixteenth note
. = accent note
                       
INTRO     
|--------|-------9\|
|--------|---------|
|--------|---------|
|--------|---------|
 
VERSE 1                                                                 ss
|--------|--------|---------|--------|--------|--------|------7/9|---------|
|7---6---|4-------|---------|--------|7---6---|4-------|---------|----2-234|
|--------|----7---|5------5/|7-------|--------|----7---|5--------|0--------|
|--------|--------|---------|----0---|--------|--------|---------|---------|

PRECHORUS 1            ss                ss  ss
|---------.|----.--.---46|---------.|-----------|
|----.----0|2-2-02-24/6--|----.----0|2-2-2100---|
|2-2-45-5--|-------------|2-2-45-5--|--------442|
|----------|-------------|----------|-----------|

CHORUS 1       ss ss     .              ss    ss
|---------|.----------|--2---------|--.-------2-2h4|
|---ss----|02-221000--|-----.--.--.|2-122102/4-4---|
|0-0012-2-|---------42|0--0-12-02-2|---------------|
|---------|-----------|------------|---------------|

    ss   ss
|----------|----.----|--------|--------|
|--------01|2-2-02-2-|0--0----|7-------|
|0-0012-2--|---------|--------|--------|
|----------|---------|--------|--------|

VERSE 2                                                           ss       ss
|--------|--------|---------|------------|--------|--------|---------|---------|
|7---6---|4-------|---------|------------|----6---|4---4-4-|5--5-----|-------24|
|--------|----7---|5-----5~/|7--7p57-5h7-|0-------|--------|----5-542|0--0004--|
|--------|--------|---------|------------|--------|--------|---------|---------|

PRECHORUS 2            ss   ss    ss    ss   ss ss
|---------.|----.--.---46|-----------.|------46-----|
|----.----1|2-2-02-24/6--|-----.-----1|2224/6--000--|
|2-2-45-5--|-------------|2-22-45-55--|-----------42|
|----------|-------------|------------|-------------|

CHORUS 2       ss   ss       .              ss ssss
|--2---------|------46----|--2---------|--.---------|
|--.--.--.--.|2224/6--00--|-----.--.--.|2-022100----|
|0--0-12-02-2|----------42|0--0-02-12-2|--------4402|
|------------|------------|------------|------------|

    ss    ss                    ss
|-----------|--.---49-9-|---------|--------|
|-------.-01|2-24/6-----|0--00--46|7-------|
|0-0012-02--|-----------|---------|--------|
|-----------|-----------|---------|--------|

BRIDGE                                                              ss  ssss
|11-------|9------9|7-------|--------|------4-|2-------|--------|----------2|
|---------|--------|------7\|0-------|--------|--------|------5-|2--2100424-|
|---------|--------|--------|------4-|2-------|------0-|--------|-----------|
|---------|--------|--------|--------|--------|--------|3---3---|-----------|

OUTRO              ss           ss          ss ssss
|-----------|--.---46----|----------4-.|------------|
|----ss----.|2-24/6--00--|---7-.---.--0|2-.22100----|
|0-0-012-2-2|----------42|0-.--022-2---|--2-----4452|
|-----------|------------|--5----------|------------|

     ss
|--------.--|--.-2/49-9-|--------|--------|--------|--------|
|---7----2--|2-02-------|--------|7-----7\|0-------|--------|
|0-.-012--22|-----------|5-------|--------|------2-|0-------|
|--5--------|-----------|--------|--------|--------|--------|

            
            
Suggest correction
Creating personal tab
Creating personal tab
You can edit any tab online and save it as your Personal.

You can edit, replace or remove any tab part or add personal notes – all changes will be seen only by you.

Personal tabs can be accessed anytime from any device, even offline.
Learn more »
Give kudos to tab author, rate the tab!
1 2 3 4 5
comments
print report bad tab
1 comment total.
0 reply
TheRedBlueBlur 10 Sep 08, 2012 09:09 AM

i can't tell what bit's supposed to be what. could you try breaking them up and labelling them?

guest
You may want to rate the tab now too:
select rating
Wanna post a correction for this tab? Suggest correction