Oops, an error
Loading. Please wait.

Everything I Own Tab

version 2
version 2

Whole song

Interactive

by Bread
25,442 views 39 this week
no commentswrite comment
1 2 3 4 5
x 11
add to favorites
launch autoscroll
font size
0
reset
how to read this tab
guitar tuner
×
Best way to learn
"Everything I Own"
Autoscroll
slow
fast
+/-
esc
set tempo
stop
Capo
7th fret
Everything I Own
Performed by Bread

Capo on 7th fret.
Tuning slightly sharp (listen to recording)

Notice the spacing of the lyrics under each chord - this shows the correct time sync.

[Intro]

e|2---2---32--02--|2---2---32--02---|
B|3---3---3-3---3-|3---3---3-3---3--|
G|2-------2--2---2|2-------2--2---2-|
D|0---------------|0----------------|
A|----------------|-----------------|
E|----------------|-----------------|


e|----2---2---2---2---|         |2---2---2---2---|
B|----3---3---2---2---|         |3---3---3---3---|
G|----2---2---2---2---|         |4---4---4---4---|
D|----0-------0-------|         |4---4---0---0---|
A|--------------------|         |2---2---0---0---|
E|--------------------|         |----------------|
        You sheltered me from harm,       kept me

e|----3---3---3---3---|----2---2/0-0---0---|
B|----0---0-----------|----3---3---2---2---|
G|----0---0---3---3---|----2---2---2---2---|
D|----0---0---0---0---|----0---0---2---2---|
A|----2---0-----------|------------0---0---|
E|----3---3---3---3---|--------------------|
    warm,       kept me warm.

e|----2---2---2---2---|--------2---2---2---2---|
B|----3---3---2---2---|--------0---0---3---3---|
G|----2---2---2---2---|--------4---4---4---4---|
D|----0-------0-------|--------4---4---0---0---|
A|--------------------|--------2---2---0---0---|
E|--------------------|------------------------|
        You gave my life to me,         set me

e|----3---3---3---3---|  |2---2/0-0---0---|
B|----0---0-----------|  |3---3---2---2---|
G|----0---0---3---3---|  |2---2---2---2---|
D|----0---0---0---0---|  |0---0---2---2---|
A|----2---0-----------|  |--------0---0---|
E|----3---3---3---3---|  |----------------|
    free,       set me free.


e|----3---3---3---3---|      |0---0---0---0---|
B|----0---0---0---0---|      |2---2---3---3/2-|
G|----0---0---0---0---|      |2---2---2---2---|
D|----2---2---0---0---|      |2---2---2---2---|
A|----2---2-----------|      |0---0---0---0---|
E|----0---0---3---3---|      |----------------|
    The finest years I ever knew...

e|----3---3---3---3---|             |0---0---3---3---|
B|----0---0---0---0---|             |2---2---0---0---|
G|----0---0---0---0---|             |2---2---0---0---|
D|----2---2---0---0---|             |2---2---0---0---|
A|----2---2-----------|             |0---0-----------|
E|----0---0---3---3---|             |--------3---3---|
    were all the years I had with you,    And I would give

[Chorus]

e|--------2---2---3---3---|  |0---0---3---3/2-|
B|--------3---3---0---0---|  |2---2---0---0---|
G|--------2---2---0---0---|  |2---2---0---0---|
D|--------0---0---2---2---|  |2---2---0---0---|
A|----------------2---2---|  |0---0-----------|
E|----------------0---0---|  |--------3---3---|
        anything  I   own,    I'd  give up my

e|--------2---2---3---3---|  |0---0---3---3/2-|
B|--------3---3---0---0---|  |2---2---0---0---|
G|--------2---2---0---0---|  |2---2---0---0---|
D|--------0---0---2---2---|  |2---2---0---0---|
A|----------------2---2---|  |0---0-----------|
E|----------------0---0---|  |--------3---3---|
      life, my  heart,  my home.   I would give

e|--------2---2---3---3---|  |0---0---3---3/2-|
B|--------3---3---0---0---|  |2---2---0---0---|
G|--------2---2---0---0---|  |2---2---0---0---|
D|--------0---0---2---2---|  |2---2---0---0---|
A|----------------2---2---|  |0---0-----------|
E|----------------0---0---|  |--------3---3---|
        everything I  own,             just to

e|--------3---3---3---3---|  |2---2---32--02---|
B|--------0---0---0---0---|  |3---3---3-3---3--|
G|--------0---0---0---0---|  |2-------2--2---2-|
D|--------0---0---0---0---|  |0----------------|
A|------------------------|  |-----------------|
E|--------3---3---3---3---|  |-----------------|
        have you     back again.


e|----2---2---2---2---|         |2---2---2---2---|
B|----3---3---2---2---|         |3---3---3---3---|
G|----2---2---2---2---|         |4---4---4---4---|
D|----0-------0-------|         |4---4---0---0---|
A|--------------------|         |2---2---0---0---|
E|--------------------|         |----------------|
        You taught me how to  love,       what it's

e|----3---3---3---3---|     |2---2/0-0---0---|
B|----0---0-----------|     |3---3---2---2---|
G|----0---0---3---3---|     |2---2---2---2---|
D|----0---0---0---0---|     |0---0---2---2---|
A|----2---0-----------|     |--------0---0---|
E|----3---3---3---3---|     |----------------|
    of,         what it's of

e|----2---2---2---2---|             |2---2---2---2---|
B|----3---3---2---2---|             |0---0---0---0---|
G|----2---2---2---2---|             |4---4---4---4---|
D|----0-------0-------|             |4---4---4---4---|
A|--------------------|             |2---2---2---2---|
E|--------------------|             |----------------|
      You never said too much but still you showed the way, and I

e|----3---3---3---3---|--------2---2---3---3/2-|
B|----1---1---0---0---|--------3---3---3---3---|
G|----0---0---0---0---|--------2---2---2---2---|
D|----2---2---0---0---|--------0---0---0---0---|
A|----3---3-----------|------------------------|
E|------------3---3---|------------------------|
    knew,     from watching you


e|----3---3---3---3---|--------0---0---0---0---|
B|----0---0---0---0---|--------2---2---3---3/2-|
G|----0---0---0---0---|--------2---2---2---2---|
D|----2---2---0---0---|--------2---2---2---2---|
A|----2---2-----------|--------0---0---0---0---|
E|----0---0---3---3---|------------------------|
    The finest years I ever knew...

e|----3---3---3---3---|             |0---0---3---3---|
B|----0---0---0---0---|             |2---2---0---0---|
G|----0---0---0---0---|             |2---2---0---0---|
D|----2---2---0---0---|             |2---2---0---0---|
A|----2---2-----------|             |0---0-----------|
E|----0---0---3---3---|             |--------3---3---|
    were all the years I had with you,    And I would give

[Chorus]

[Bridge]

e|---------2---2---2---2---|---------2---2---2---2---|
B|---------0---0---0---0---|---------3---3---3---3---|
G|---------4---4---4---4---|---------4---4---4---4---|
D|---------4---4---4---4---|---------0---0---0---0---|
A|---------2---2---2---2---|---------0---0---0---0---|
E|-------------------------|-------------------------|

Is there someone you know, you're loving them so

e|---------2---2---2---2---|--------2---2---2---2---|
B|---------0---0---0---0---|--------0---0---0---0---|
G|---------0---0---0---0---|--------0---0---0---0---|
D|---------0---0---0---0---|--------0---0---0---0/0-|
A|---------2---2---2---2---|--------2---2---2---2/0-|
E|---------3---3---3---3---|--------3---3---3---3/2-|
     but taking them all for granted?        You may

e|---------3---3---3---3---|             |3---3---3---3---|
B|---------0---0---0---0---|             |3---3---3---3---|
G|---------0---0---0---0---|             |4---4---4---4---|
D|---------2---2---2---2---|             |0---0---0---0---|
A|---------2---2---2---2---|             |----------------|
E|---------0---0---0---0---|             |----------------|
         lose them one day,    someone takes them away

e|---------3---3---3---3---|                |2---2---3---3---|
B|---------1---1---1---1---|                |2---2---0---0---|
G|---------0---0---0---0---|                |2---2---0---0---|
D|---------2---2---2---2---|                |0---0---0---0---|
A|---------3---3---3---3---|                |0---0-----------|
E|-------------------------|                |--------3---3---|
and they don't hear the words you long to say. And I would give

[Chorus]

[Chorus]
(repeat last line) just to touch you once again.



************************************

| /  Slide up

************************************
Suggest correction
comments
print report bad tab
guest
You may want to rate the tab now too:
select rating
Wanna post a correction for this tab? Suggest correction