Oops, an error
Loading. Please wait.

1 Out Of 2 bass

100 views 3 this week
no commentswrite comment
1 2 3 4 5
3 more votes to show rating
add to favorites
×
Save as Personal and add changes to this tab that will be seen only by you. Learn more ›
×
You can save this tab as Personal to edit and correct it or add notes. All changes will be seen only by you. Learn more »
launch autoscroll
font size
0
reset
guitar tuner
edit
Autoscroll
slow
fast
+/-
esc
set tempo
stop
Artist : Breakbot
Album : By Your Side
Song : One Out Of Two

[Verse] (0:45)
G|------------------x-/12-|r-----------------------|-----------10-12-----10-|r-----------------------|
D|------------3--x--------|------------------------|---------3--------12----|------------------------|
A|------------------------|------------------------|------------------------|---------------10-8-----|
E|1--r--1--r--------------|------------------------|1--r--1-----------------|---------------------8--|
  1  +  2  +  3  +  4  +   1  +  2  +  3  +  4  +   1  +  2  +  3  +  4  +   1  +  2  +  3  +  4  +   

G|------------------------|------------------------|------------------------|------------------------|
D|------12-r--10-12----10-|r-(10)------------------|------5--r--3--x--5-----|------------------------|
A|------------------12----|------------------------|------------------------|---------------------8--|
E|10-10-------------------|------------------------|3--r-----------------6--|------r-----9--8--9-----|
  1  +  2  +  3  +  4  +   1  +  2  +  3  +  4  +   1  +  2  +  3  +  4  +   1  +  2  +  3  +  4  +   

G|------------10-12-x/12--|r-----------------------|------------10-12----10-|r-----------------------|
D|------10r---------------|---------------10-10-12-|------------------12----|------------------------|
A|8--r--------------------|------------------------|8--r--------------------|---------------10-8-----|
E|------------------------|------------------------|------------------------|---------------------8--|
  1  +  2  +  3  +  4  +   1  +  2  +  3  +  4  +   1  +  2  +  3  +  4  +   1  +  2  +  3  +  4  +   

G|------------------------|------------------------|------------------------|------------------------|
D|------12-r--10-12----10-|r-----------------------|------5--r--3--r--5-----|------------------3-----|
A|------------------12----|------------------------|------------------------|------------1-----------|
E|10-r--------------------|------------------------|3--r-----------------6--|---------------------1--|
  1  +  2  +  3  +  4  +   1  +  2  +  3  +  4  +   1  +  2  +  3  +  4  +   1  +  2  +  3  +  4  +   

[Chorus]
G|------------------------|---------------5--------|------------------------|---------------9--------|
D|---3--------------------|---------5--------------|---7-----------------7--|---7-----10-------------|
A|------------------------|------------3-----------|------------------------|------------7-----------|
E|r-----1--r--1--r------x-|1--1--3-----------3--5--|r-----5--r--5--r--------|5-----8-----------8--10-|
  1  +  2  +  3  +  4  +   1  +  2  +  3  +  4  +   1  +  2  +  3  +  4  +   1  +  2  +  3  +  4  +   

G|------------------------|------------------------|------------------------|------------------------|
D|------------------------|------------------------|------------------------|------------------------|
A|------------------------|------------------------|---------------8--r-----|------------------------|
E|r--10-8--x--10-8--r--10-|r--8--10-r--10-8--r--6--|r--6--6--r--6--------6--|r--5--6-----6--5--3--1--|
  1  +  2  +  3  +  4  +   1  +  2  +  3  +  4  +   1  +  2  +  3  +  4  +   1  +  2  +  3  +  4  +   

G|------------------------|---------------5--------|------------------------|---------------9--------|
D|---3--------------------|---------5--------------|---7-----------------7--|---7-----10-------------|
A|------------------------|------------3-----------|------------------------|------------7-----------|
E|r-----1--r--1--r------x-|1--1--3-----------3--5--|r-----5--r--5--r--------|5-----8-----------8--10-|
  1  +  2  +  3  +  4  +   1  +  2  +  3  +  4  +   1  +  2  +  3  +  4  +   1  +  2  +  3  +  4  +   

G|------------------------|---------3--------------|------------------------|------------------------|
D|------------------------|---------------0--------|---------0--------------|------------------------|
A|------------------------|------1-----3-----3--1--|r--1--3--------0--1--3--|------------1--0--------|
E|r--10-8--x--10-8--r--10-|r--1--------------------|------------------------|------------------3--1--|
  1  +  2  +  3  +  4  +   1  +  2  +  3  +  4  +   1  +  2  +  3  +  4  +   1  +  2  +  3  +  4  +   

[Verse]
G|------------------------|------------------------|------------------------|------------------------|
D|------------------------|------------------------|------------------------|------------------------|
A|------------------------|------------------------|------------------------|------------------------| (x2)
E|------------------------|------------------------|------------------------|------------------------|
  1  +  2  +  3  +  4  +   1  +  2  +  3  +  4  +   1  +  2  +  3  +  4  +   1  +  2  +  3  +  4  +   

G|------------10-12-x-/12-|r-----------------------|------------10-12----10-|r-----------------------|
D|------3--r--------------|------------------------|---------10-------12----|------------------------|
A|------------------------|------------------------|------8-----------------|--------------10--8-----|
E|1--r--------------------|------------------------|1--r--------------------|---------------------8--|
  1  +  2  +  3  +  4  +   1  +  2  +  3  +  4  +   1  +  2  +  3  +  4  +   1  +  2  +  3  +  4  +   

G|------------------------|------------------------|------------------------|------------------------|
D|------12-r--10-12----10-|r-(10)------------------|------5--r--3--x--5-----|---------------------3--|
A|------------------12----|------------------------|------------------------|------------4--3--4-----|
E|10-10-------------------|------------------------|3--r-----------------6--|------r-----------------|
  1  +  2  +  3  +  4  +   1  +  2  +  3  +  4  +   1  +  2  +  3  +  4  +   1  +  2  +  3  +  4  +   

[Chorus]
G|------------------------|---------------5--------|------------------------|---------------9--------|
D|---3--------------------|---------5--------------|---7-----------------7--|---7-----10-------------|
A|------------------------|------------3-----------|------------------------|------------7-----------|
E|r-----1--r--1--r------x-|1--1--3-----------3--5--|r-----5--r--5--r--------|5-----8-----------8--10-|
  1  +  2  +  3  +  4  +   1  +  2  +  3  +  4  +   1  +  2  +  3  +  4  +   1  +  2  +  3  +  4  +   

G|------------------------|------------------------|------------------------|------------------------|
D|------------------------|------------------------|------------------------|------------------------|
A|------------------------|------------------------|---------------8--r-----|------------------------|
E|r--10-8--x--10-8--r--10-|r--8--10-r--10-8--r--6--|r--6--6--r--6--------6--|r--5--6-----6--5--3--1--|
  1  +  2  +  3  +  4  +   1  +  2  +  3  +  4  +   1  +  2  +  3  +  4  +   1  +  2  +  3  +  4  +   

G|------------------------|---------------5--------|------------------------|---------------9--------|
D|---3--------------------|---------5--------------|---7-----------------7--|---7-----10-------------|
A|------------------------|------------3-----------|------------------------|------------7-----------|
E|r-----1--r--1--r------x-|1--1--3-----------3--5--|r-----5--r--5--r--------|5-----8-----------8--10-|
  1  +  2  +  3  +  4  +   1  +  2  +  3  +  4  +   1  +  2  +  3  +  4  +   1  +  2  +  3  +  4  +   

G|------------------------|------------------------|------------------------|------------------------|
D|------------------------|------------------------|------------------------|------------------------|
A|------------------------|------------------------|---------------8--r-----|------------------------|
E|r--10-8--x--10-8--r--10-|r--8--10-r--10-8--r--6--|r--6--6--r--6--------8--|r--8--8--r--8--8--6--5--|
  1  +  2  +  3  +  4  +   1  +  2  +  3  +  4  +   1  +  2  +  3  +  4  +   1  +  2  +  3  +  4  +  

[Outro]
G|------------------------|------------------------|------------------------|---------------------2--|
D|------------------7-p6--|r-----------------6-p5--|r-----3--5--r--3--r-----|---------------x3-5-----|
A|---------------8--------|------x--x-----8--------|---------------------3--|------------------------|
E|r-----------------------|------------------------|------------------------|------------------------|
  1  +  2  +  3  +  4  +   1  +  2  +  3  +  4  +   1  +  2  +  3  +  4  +   1  +  2  +  3  +  4  +   

G|r-----2-----------2-p1--|r-----------------------|---------------2--r-----|------------------------|
D|---------r-----3--------|---------------3--6-p5--|r-----3--5--r-----------|---------5--r--3--5-h7--|
A|------------------------|---------5--r-----------|---------------------3--|------------------------|
E|------------1-----------|------3-----------------|------------------------|------------------------|
  1  +  2  +  3  +  4  +   1  +  2  +  3  +  4  +   1  +  2  +  3  +  4  +   1  +  2  +  3  +  4  +   

G|------------------------|------------------------|------------------------|---------------7-7-5-----|
D|r-----------------7-p6--|r-----------------6-p5--|r-----3--5--r--3--r-----|----------------------7--|
A|------------8--r--------|------------8--x--------|---------------------3--|-------------------------|
E|------------------------|------------------------|------------------------|-------------------------|
  1  +  2  +  3  +  4  +   1  +  2  +  3  +  4  +   1  +  2  +  3  +  4  +   1  +  2  +  3  +   4  +   

G|------------------------|------------------------|---------------2--r-----|------------------------|
D|r-----7--r--------7-p6--|r--------------x--6-p5--|r-----3--5--r-----------|------------------5--7--|
A|---------------8--------|---------5--r-----------|---------------------3--|---------------8--------|
E|------------5-----------|------3-----------------|------------------------|------------------------|
  1  +  2  +  3  +  4  +   1  +  2  +  3  +  4  +   1  +  2  +  3  +  4  +   1  +  2  +  3  +  4  +   

G|------------------------|------------------------|------------------------|------------------------|
D|r-----------------7-p6--|r-----------------6-p5--|r-----------------5-----|---------------5-----3--|
A|------------------------|------------------------|---------------------3--|------------------5-----|
E|------------------------|------------------------|------------------------|------------------------|
  1  +  2  +  3  +  4  +   1  +  2  +  3  +  4  +   1  +  2  +  3  +  4  +   1  +  2  +  3  +  4  +   

G|------------------------||
D|r-----------------------||
A|------------------------||
E|------------------------||
  1  +  2  +  3  +  4  +    


************************************

| x   Dead note
| (n) Ghost note
| h   Hammer-on
| p   Pull-off
| r   Release
| /   Slide up
| \   Slide down

************************************
Suggest correction
Creating personal tab
Creating personal tab
You can edit any tab online and save it as your Personal.

You can edit, replace or remove any tab part or add personal notes – all changes will be seen only by you.

Personal tabs can be accessed anytime from any device, even offline.
Learn more »
Give kudos to tab author, rate the tab!
1 2 3 4 5
comments
print report bad tab
guest
You may want to rate the tab now too:
select rating
Wanna post a correction for this tab? Suggest correction