Oops, an error
Loading. Please wait.

Fantasy Feat Ruckazoid Bass

3,887 views 6 this week
no commentswrite comment
1 2 3 4 5
x 4
add to favorites
launch autoscroll
font size
0
reset
guitar tuner
Autoscroll
slow
fast
+/-
esc
set tempo
stop
Author
Difficulty
advanced
Hey guys! This bassline is crazy and totally catchy and I saw that no one has posted it.

I thought I might as well submit it :)

Main Bassline:
---------------- |---7------------- |---------------- |------------------10---------- |
---------------- |-------------7--- |---------------- |------------------------------ |
---------------- |5-----5--------8- |---------------- |5--5-----8--8-8-------8-8----- |
3--3-3--5--6----|------------------|3--3-3--5--6----|------8------------------------- |

Chorus:
-------5--7---------|----------------------7--|
---7----------------|---8-8-----8-8-----------|
--------------5-----|-------------------8-----|
5----------------5--|6-------6-------6------- |

-------5--7---------|-----------------------------------|
---7----------------|---8-8-----8-8-----8-8------------ |
--------------5-----|-----------------------------------|
5----------------5--|6-------6-------6-------6---3-4-5- |



Sorry for any rhythmic oddities. Listen to the song to know exactly where each note goes.
Suggest correction
comments
print report bad tab
guest
You may want to rate the tab now too:
select rating
Wanna post a correction for this tab? Suggest correction