Oops, an error
Loading. Please wait.

Make You Mine bass

64 views 6 this week
no commentswrite comment
1 2 3 4 5
3 more votes to show rating
add to favorites
×
Save as Personal and add changes to this tab that will be seen only by you. Learn more ›
×
You can save this tab as Personal to edit and correct it or add notes. All changes will be seen only by you. Learn more »
launch autoscroll
font size
0
reset
guitar tuner
edit
Autoscroll
slow
fast
+/-
esc
set tempo
stop
About this tab version
I think that it's a 5 string bass in the recording, but it works fine just dropping the D. Was this info helpful? Yes No
Artist : Breakbot
Album : By Your Side
Song : Make you Mine

[Verse] - 0:04
G|--------------------------------|--------------------------------|
D|----------------------5---------|--------------------------------|
A|----------6-----7-----------7---|----5---7p5---------------------|
D|----9---9-----------------------|------------9---7---\-------7r--|
  1   +   2   +   3   +   4   +    1   +   2   +   3   +   4   +   

G|--------------------------------|--------------------------------|
D|--------------------------------|--------------------------------|
A|----------6-----7-----5-----7---|----5---7p5---------------------|
D|----9---9-----------------------|------------9---7---\-------7r--|
  1   +   2   +   3   +   4   +    1   +   2   +   3   +   4   +   

G|--------------------------------|--------------------------------|
D|--------------------------------|--------------------------------|
A|----------6-----7-----------7---|----5---7p5---------------------|
D|----9---9-------------2---------|------------9---7-----5-----7---|
  1   +   2   +   3   +   4   +    1   +   2   +   3   +   4   +   

G|--------------------------------|--------------------------------|
D|--------------------------------|--------------------------------|
A|----------6-----7-----5-----7---|----5---7p5---------------------|
D|----9---9-----------------------|------------9---7-----5-----7r--|
  1   +   2   +   3   +   4   +    1   +   2   +   3   +   4   +   

[Chorus]
G|--------------------------------|--------------------------------|
D|--------------------------------|--------------------------------|
A|--------------------------------|----------------5h7-9---7---5---|
D|------------5-6-7---7-----8-----|9r------------------------------|
  1   +   2   +   3   +   4   +    1   +   2   +   3   +   4   +   

G|--------------------------------|--------------------------------|
D|--------------------------------|--------------------5---7---5---|
A|--------------------------------|----------------5h7-------------|
D|7r----------5-6-7---7-----8-----|9r------------------------------|
  1   +   2   +   3   +   4   +    1   +   2   +   3   +   4   +   

G|--------------------------------|--------------------------------|
D|--------------------------------|--------------------------------|
A|--------------S-S---------S-----|S---------------5h7-9---7---5---|
D|7r------------6-7r--------8-----|9r------------------------------|
  1   +   2   +   3   +   4   +    1   +   2   +   3   +   4   +   
G|--------------------------------|--------------------------------|
D|--------------------------------|--------------------5-----------|
A|--------------------------------|----------------5h7-----7---5---|
D|7r----------5-6-7---7-----8-----|9r------------------------------|
  1   +   2   +   3   +   4   +    1   +   2   +   3   +   4   +   

[Instrumental]
G|--------------------------------|--------------------------------|
D|--------7-----------------------|--------------------------------|
A|----------x-5r------------------|----------------5h7-5-------5---|
D|7r------------------0r------9-9r|----17\-----------------9-------|
  1   +   2   +   3   +   4   +    1   +   2   +   3   +   4   +   

G|--------------------------------|--------------------------------|
D|--------------------------------|----------------------------5---|
A|------------5r------------------|----------------------x-5h7-----|
D|7r------------------17\-------9-|----10--9---7-------------------|
  1   +   2   +   3   +   4   +    1   +   2   +   3   +   4   +   

G|--------------------------------|--------------------------------|
D|--------7-----------------------|--------------------------------|
A|----------x-5r------------------|----------------5h7-5-------5---|
D|7r------------------0r------9-9r|----17\-----------------9-------|
  1   +   2   +   3   +   4   +    1   +   2   +   3   +   4   +   

G|--------------------------------|--------------------------------|
D|--------------------------------|--------------------------------|
A|7---5r--------------------------|--------------------------------|
D|------------7r------9r------3---|--------------------------------|
  1   +   2   +   3   +   4   +    1   +   2   +   3   +   4   +   

[Verse]
G|--------------------------------|--------------------------------|
D|----------------------5---------|--------------------------------|
A|----------6-----7-----------7---|----5---7p5---------------------|
D|----9---9-----------------------|------------9---7---\-------7r--|
  1   +   2   +   3   +   4   +    1   +   2   +   3   +   4   +   

G|--------------------------------|--------------------------------|
D|--------------------------------|--------------------------------|
A|----------6-----7-----------7---|----5---7p5---------------------|
D|----9---9-------------9---------|------------9---7---7r------7r--|
  1   +   2   +   3   +   4   +    1   +   2   +   3   +   4   +   

G|--------------------------------|--------------------------------|
D|--------------------------------|--------------------------------|
A|----------6-----7-----------7---|----5---7p5---------------------|
D|----9---9-------------2---------|------------9---7-----5-----7---|
  1   +   2   +   3   +   4   +    1   +   2   +   3   +   4   +   

G|--------------------------------|--------------------------------|
D|--------------------------------|--------------------------------|
A|----------6-----7-----------7---|----5---7p5-----S---S-----------|
D|----9---9-------------9---------|------------9---7---7---19\-----|
  1   +   2   +   3   +   4   +    1   +   2   +   3   +   4   +   

[Chorus]
G|--------------------------------|--------------------------------|
D|--------------------------------|--------------------------------|
A|S-------------------------------|----------------5h7-9---7---5---|
D|7r----------5-6-7---7-----8-----|9r------------------------------|
  1   +   2   +   3   +   4   +    1   +   2   +   3   +   4   +   

G|--------------------------------|--------------------------------|
D|--------------------------------|-----------------------/7---5---|
A|--------------------------------|----------------5---7-----------|
D|7r----------5-6-7---7-----8-----|9r------------------------------|
  1   +   2   +   3   +   4   +    1   +   2   +   3   +   4   +   

G|--------------------------------|--------------------------------|
D|--------------------------------|--------------------------------|
A|--------------S-S---------S-----|S---------------5h7-9---7---5---|
D|7r------------6-7r--------8-----|9r------------------------------|
  1   +   2   +   3   +   4   +    1   +   2   +   3   +   4   +   
G|--------------------------------|--------------------------------|
D|--------------------------------|--------------------------------|
A|--------------------------------|--------------------------------|
D|7r----------5-6-7---7-----8-----|9r------------------------------|
  1   +   2   +   3   +   4   +    1   +   2   +   3   +   4   +   

[Instrumental]
G|--------------------------------|--------------------------------|
D|--------------------------------|--------------------------------|
A|--------------------------------|--------------------------------| 
D|--------------------------------|--------------------------------|
  1   +   2   +   3   +   4   +    1   +   2   +   3   +   4   +   

G|--------------------------------|--------------------------------|
D|--------------------------------|----------------------------5---|
A|--------------------------------|------------------------5h7-----|
D|--------------------------------|--------------------------------|
  1   +   2   +   3   +   4   +    1   +   2   +   3   +   4   +   

G|--------------------------------|--------------------------------|
D|--------7-----------------------|--------------------------------|
A|----------x-5r------------------|----------------5h7-5-------5---|
D|7r------------------0r------9-9r|----17\-----------------9-------|
  1   +   2   +   3   +   4   +    1   +   2   +   3   +   4   +   

G|--------------------------------|--------------------------------|
D|--------------------------------|--------------------------------|
A|7---5r--------------------------|--------------------------------|
D|------------7r------9r------3---|--------------------3--/10\-----|
  1   +   2   +   3   +   4   +    1   +   2   +   3   +   4   +   

G|--------------------------------|--------------------7h9-----7---|
D|------7-------------------------|----9---------------------------|
A|---------(S)-(S)---(S)----------|------------7-----------5-------| x8
D|5h7-------10-(10)--(10)-----9p7-|9-------9-----------------------|
  1   +   2   +   3   +   4   +    1   +   2   +   3   +   4   +   

[Outro] w/ compressor (I think)
G|--------------------------------|--------------------------------|
D|--------------------------------|--------------------------------|
A|--------------------------------|--------------------------------|
D|5h7---------x-9-----9-------0h2-|--------------------9-------7---|
  1   +   2   +   3   +   4   +    1   +   2   +   3   +   4   +   

G|--------------------------------|--------------------------------|
D|--------------------------------|------------------------5-------|
A|--------------------------------|--------------------5h7---------|
D|------------7h9-------------0h2-|----------------------------7---|
  1   +   2   +   3   +   4   +    1   +   2   +   3   +   4   +   

G|--------------------------------|--------------------------------|
D|--------------------------------|--------------------------------|
A|--------------------------------|--------7---5-------------------|
D|----------x-x-9-----9-------0h2-|----2---------------9-------7-7r|
  1   +   2   +   3   +   4   +    1   +   2   +   3   +   4   +   

G|--------------------------------|--------------------------------||
D|--------------------------------|--------------------------------||
A|--------------------------------|--------------------------------||
D|------------9-9r------------3---|--------------------------------||
  1   +   2   +   3   +   4   +    1   +   2   +   3   +   4   +   


************************************

| x   Dead note
| (n) Ghost note
| h   Hammer-on
| p   Pull-off
| r   Release
| /   Slide up
| \   Slide down
| S   Slap

************************************

            
            
Suggest correction
Creating personal tab
Creating personal tab
You can edit any tab online and save it as your Personal.

You can edit, replace or remove any tab part or add personal notes – all changes will be seen only by you.

Personal tabs can be accessed anytime from any device, even offline.
Learn more »
Give kudos to tab author, rate the tab!
1 2 3 4 5
comments
print report bad tab
guest
You may want to rate the tab now too:
select rating
Wanna post a correction for this tab? Suggest correction