Oops, an error
Loading. Please wait.

Always Tab

version 2
version 2

Whole song

Interactive

474 views 1 this week
no commentswrite comment
1 2 3 4 5
accurate
x 1
add to favorites
launch autoscroll
font size
0
reset
how to read this tab
guitar tuner
Tab Pro tools
  • play this tab
  • loop segment
  • change instrument
  • show fretboard
  • metronome
Autoscroll
slow
fast
+/-
esc
set tempo
stop
Contributor
“Always” by: Breaking Benjamin
Tabbed by: Chris Gill (CGill1403@aol.com)

Tuning: C# G# C# F# A# D#

INTRO
D#|---------------------------------------------------|
A#|---------------------------------------------------|
F#|----------------------------------5-5-5-5-0-0-0-0--|
C#|--0---0---0---0---0---0---0---0--------------------|
G#|--0---0---0---0---0---0---0---0--------------------|
C#|--0---0---0---0---0---0---0---0--------------------|

PRE VERSE
D#|--------------------------------------------------|
A#|--------------------------------------------------|
F#|--------5-----5------------------5-----5------5^--|
C#|--0--0--3--0--3-0-0-5/7-5--0--0--3--0--3-0-0------|
G#|--0--0--3--0--3-0-0-3/5-3--0--0--3--0--3-0-0--3^--|
C#|--0--0-----0----0-0--------0--0-----0----0-0------|

D#|-----------------------------------------------------|
A#|-----------------------------------------------------|
F#|--------5-----5------------------5-----5-------------|
C#|--0--0--3--0--3-0-0-5/7-5--0--0--3--0--3-0-0-5/7-5/7-|
G#|--0--0--3--0--3-0-0-3/5-3--0--0--3--0--3-0-0-3/5-3/5-|
C#|--0--0-----0----0-0--------0--0-----0----0-0---------|

VERSE
D#|------------------------------------------------------------------|
A#|------------------------------------------------------------------|
F#|----------------------------------------------------------5---5-7-|
C#|------------------------------------------------------------0-----| x4
G#|----5-3---3---3-5---5-3---3---3-5---5-3---3---3-5---5-3-----------|
C#|--0-----0---0-----0-----0---0-----0-----0---0-----0-----0---------|
PM..........................................................

CHORUS
D#|-----------------------------------------------------------|
A#|-----------------------------------------------------------|
F#|-10-1010-1010-1010-10101010----------------------12-12-12--|
C#|--8--8-8--8-8--8-8--8-8-8-8--0-0--0-0--0-0--0-0--10-10-10--| x3
G#|--8--8-8--8-8--8-8--8-8-8-8--0-0--0-0--0-0--0-0--10-10-10--|
C#|--8--8-8--8-8--8-8--8-8-8-8--0-0--0-0--0-0--0-0--10-10-10--|

D#|------------------------------------------------------------------|
A#|------------------------------------------------------------------|
F#|-10-1010-1010-1010-10101010--12-12-12-12-12-12-12--12-12-12-12-12-|
C#|--8--8-8--8-8--8-8--8-8-8-8--10-10-10-10-10-10-10--10-10-10-10-10-|
G#|--8--8-8--8-8--8-8--8-8-8-8--10-10-10-10-10-10-10--10-10-10-10-10-|
C#|--8--8-8--8-8--8-8--8-8-8-8--10-10-10-10-10-10-10--10-10-10-10-10-|


PRE VERSE

VERSE

CHORUS

PRE VERSE

INTRO x3

D#|---------------------------------------------------|
A#|---------------------------------------------------|
F#|----------------------------------------------7--9-|
C#|--0---0---0---0-0-0-0-----5-7-0-0-0-0-----5-7-5--7-|
G#|--0---0---0---0-0-0-0-3-5-3-5-0-0-0-0-3-5-3-5-5--7-|
C#|--0---0---0---0-0-0-0-3-5-----0-0-0-0-3-5-----5--7-|

CHORUS

PRE VERSE x2

END ON
D#|--------|
A#|--------|
F#|--------|
C#|--0--0--|
G#|--0--0--|
C#|--0--0--|

comments
We did not receive enough feedback on this tab! Please rate:
print report bad tab
1 2 3 4 5
I want to post or [tab]
guest
You may want to rate the tab now too:
select rating
Please do not post tabs as comments. Select "correction" instead!