Oops, an error
Loading. Please wait.

Anthem Of The Angels Bass Tab

version 1
version 1

Whole song

Interactive

2,118 views 3 this week
no commentswrite comment
1 2 3 4 5
excellent!
x 1
add to favorites
launch autoscroll
font size
0
reset
guitar tuner
Tab Pro tools
  • play this tab
  • loop segment
  • change instrument
  • show fretboard
  • metronome
Autoscroll
slow
fast
+/-
esc
set tempo
stop
Contributor
Tuning
C G C F A D
Intro (0:08)
  s s e+ e s s s e s s s s   s s e+ e s s s e s s s s
F|--------------------------|--------------------------|
C|--------------------------|--------------------------|
G|--------------------------|--------------------------|
C|-0-0-0--2-2-2-4-4-7-6-2-6-|-0-0-0--2-2-2-4-4-7-6-7-9-|

  s s e+ e s s s e s s s s   s s e+ e s s s e s s e
|--------------------------|------------------------|
|--------------------------|------------------------|
|--------------------------|------------------------|
|-0-0-0--2-2-2-4-4-7-6-2-6-|-0-0-0--2-2-2-4-4-7-6-2-|


Verse (0:24)
  q  q  h    q  q  h    q  q  h    q  q  h
|----------|----------|----------|----------|
|----------|----------|----------|----------|
|----------|----------|----------|----------|
|-0--2--4--|-0--2--4--|-0--2--4--|-0--2--4--|

  q  q  h    q  q  h    q  q  h    q  q  q+ e
|----------|----------|----------|------------|
|----------|----------|----------|------------|
|----------|----------|----------|------------|
|-0--2--4--|-0--2--4--|-0--2--4--|-0--2--4--6-|

Chorus (0:57)
  h  e s e s s s   h  e s e s s s   q e  s e  s e+ s e    q e+ s s s e  s e+
|----------------|----------------|---------------------|--------------------|
|--------7-6-5-3-|----------------|---------------------|--------------------|
|------7---------|-4--4-6---------|---------------------|--------------------|
|-7--7-----------|--------4-6-0-3-|-4-4--4-4--2-2--2-2--|-0-0--0-0-0-0--0-2--|


Verse 2 (1:14)
  q  q  h    q  q  h    q  q  h    q  q  h    q  q  h
|----------|----------|----------|----------|----------|
|----------|----------|----------|----------|----------|
|----------|----------|----------|----------|----------|
|-0--2--4--|-0--2--4--|-0--2--4--|-0--2--4--|-0--2--4--|

  q  q  h    q  q  h    q  q  h    q  q  h    q  q  q+ e
|----------|----------|----------|----------|------------|
|----------|----------|----------|----------|------------|
|----------|----------|----------|----------|------------|
|-0--2--4--|-0--2--4--|-0--2--4--|-0--2--4--|-0--2--4--6-|

Chorus 2 (1:56)
  q  s s s e s s s s s e  [q  e+] s e s e s s s
|------------------------|----------------------|
|--------7-7-6-----7-6---|----------6---6-------|
|------7-------7-4-----7-|-4-(4)--4---4---4-----|
|-7--7-------------------|------------------6-5-|

F|-----------------------------------------------------------------|
C|-----------------------------------------------------------------|
G|-----------------------------------------------------------------|
C|-4-------------4-r-2-2-----2-2---0-------------0---0-0-0-----2---|
   1   +   2   +   3   +   4   +   1   +   2   +   3   +   4   +   

  q  s s s e t t s s s s s s  [q  e+] s s s s s s s s s 
|----------------------------|--------------------------|
|--------7-7-7h9p7---7-9-6---|----------6-6-----6-------|
|------7-----------7-------7-|-4-(4)--4-----4-4---4-----|
|-7--7-----------------------|----------------------0-3-|

F|-----------------------------------------------------------------|
C|-----------------------------------------------------------------|
G|-----------------------------------------5-----------------------|
C|-4-------4-----4-r-2-2-----2-2---0-------------0---0-0-0-----2---|
   1   +   2   +   3   +   4   +   1   +   2   +   3   +   4   +   

Interlude (2:30)
F|-----------------------------------------------------------------|
C|-----------------7-9---------------------------------------------|
G|---------------------7-----------------------------4-5-4---------|
C|-4-------6---------------2-4-2---2-0-------2-0-----------7-6-6-6-|
   1   +   2   +   3   +   4   +   1   +   2   +   3   +   4   +    
2:38 
F|-----------------------------------------------------------------|
C|-----------------------------------------------------------------|
G|-----------------------------------------------------------------|
C|-4-------6-------7-7-7---2-2-2---2-0-------2-0-----0-0-0-2-0-2-3-|
   1   +   2   +   3   +   4   +   1   +   2   +   3   +   4   +   
2:47
F|-----------------------------------------------------------------|
C|-----------------------------------------------------------------|
G|-----------------------------------------------------------------|
C|-4-4-4---6-------7-7-7---2-2-2---2-0-------2-0-----6-----7-9-9-9-|
   1   +   2   +   3   +   4   +   1   +   2   +   3   +   4   +    
2:55                            
F|-----------------------------------------------------------------|
C|-------------------7-7-797-6-------------------------------------|
G|-----------------7-----------7---------------------5-5-5-----7---|
C|-4-4-4---6-----------------------2-0-------2-0-------------------|
   1   +   2   +   3   +   4   +   1   +   2   +   3   +   4   +   
 
Chorus 3 (3:03)
F|-----------------------------------------------------------------|
C|-----------------------------------------------------------------|
G|-----------------------------------------------------------------|
C|-7-------------------------------r-----------------------11--\---|
   1   +   2   +   3   +   4   +   1   +   2   +   3   +   4   +   

F|-----------------------------------------------------------------|
C|-----------------------------------------------------------------|
G|-----------------------------------------------------------------|
C|-4-------4-----4-r-2-2-----2-2---0-------0-----0---0-0-0-----6---|
   1   +   2   +   3   +   4   +   1   +   2   +   3   +   4   +   

3:20
F|-----------------------------------------------6-6-6-------------|
C|---------------------7---7---6-----------------------6---6-------|
G|-------------------7---7---7---7-4-----------4---------4---4-6-7-|
C|-7-------------7-r-----------------------------------------------|
   1   +   2   +   3   +   4   +   1   +   2   +   3   +   4   +   

3:28
F|-----------------------------------------------------------------|
C|-----------------------------------------------------------------|
G|-----------------------------------------------------------------|
C|-4---4---4-----4-r-2-2-----2-2---0-------------0---0-0-0-----2---|
   1   +   2   +   3   +   4   +   1   +   2   +   3   +   4   +   

3:36
F|-----------------------------------------------------------------|
C|-----------------------------------------------------------------|
G|-----------------------------------------5-----------------------|
C|-4-----4-4---4-6-r-2-2---2-2-2---0-------------0---0-0-0-----2---|
   1   +   2   +   3   +   4   +   1   +   2   +   3   +   4   +   
 
3:45
F|-----------------------------------------------------------------|
C|-----------------------------------------------------------------|
G|-----------------------------------------------------------------|
C|-4---------------2-------r-4-----0-------------------------------|
   1   +   2   +   3   +   4   +   1   +   2   +   3   +   4   +   

Tabbed by: Dave Vucko
comments
We did not receive enough feedback on this tab! Please rate:
print report bad tab
1 2 3 4 5
I want to post or [tab]
guest
You may want to rate the tab now too:
select rating
Please do not post tabs as comments. Select "correction" instead!