Oops, an error
Loading. Please wait.

Anthem Of The Angels Tab

version 3
version 3

Whole song

  • Will include every precise detail, including bends and barre, power chords.

Interactive

5,651 views 1 this week
6 commentsread comments
1 2 3 4 5
excellent!
x 6
add to favorites
launch autoscroll
font size
0
reset
how to read this tab
guitar tuner
Autoscroll
slow
fast
+/-
esc
set tempo
stop
Help us to improve Ultimate-Guitar.com Take our survey!
×
Author
Difficulty
Tuning
novice
C G C F A D
Anthem of the Angels
Breaking Benjamin
Dear Agony
Tuning: C G C F A D

Sorry, I didn't include Aaron's guitar parts besides the pre-verses.  The tab 
isn't exactly timed,but just listen to the song and you will figure it out. Please 
rate and comment.

Key:     /  slide up     ~  hold note     x  scratch note

Intro
Guitar 1 (Ben)                                         x2  End w/ this
|--------------------------------------------------------|-----------|
|--------------------------------------------------------|-----------|
|--------------------------------------------------------|-----------|
|-0-0-0--2--2-2/4-4-----------0-0-0--2--2-2/4-4----------|--------0~-|
|-0-0-0--2--2-2/4-4-----------0-0-0--2--2-2/4-4----------|--------0~-|
|-0-0-0--2--2-2/4-4--7-6-2-4--0-0-0--2--2-2/4-4--7-6-7-9-|-7-6-2--0~-|

Guitar 2 (Aaron)
|----------------------------------------------------------------------|
|------------------------------------------------------------------12--|
|-/14--13-------/14~-13------------11-/14--13-------/11---14-13-14-----|
|---------14-11---------14---11-14------------14-11--------------------|
|----------------------------------------------------------------------|
|----------------------------------------------------------------------|

|----------------------------------------------------------------------|
|----------------------------------------------------------------------|
|-/14--13-------/14~-13------------11-/14--13----/13-11---14-13--------|
|---------14-11---------14---11-14------------14----------------14--12-|
|----------------------------------------------------------------------|
|----------------------------------------------------------------------|

Verse is Singing, Bass, String Orchestra, but no guitar.

Chorus 
(Ben)
|---------------------------------------------------------------------------|
|---------------------------------------------------------------------------|
|---------------------------------------------------------------------------|
|-x-6--7---7---7--7-7--x7--6---6---6--6-6--x6--4---4--x2-22-x-2--0---0---0--|
|-x-6--7---7---7--7-7--x7--7---7---7--7-7--x7--4---4--x2-22-x-2--0---0---0--|
|-x-6--7---7---7--7-7--x7--6---6---6--6-6--x6--4---4--x2-22-x-2--0---0---0--|

|---------|
|---------|
|---------|Sorry that this small part is here. UG really needs to allow more 
|-0-0--x0-|space when you write the tabs.
|-0-0--x0-|
|-0-0--x0-|

Pre-Verse
Guitar 1 (Ben)
|-------------------------------------------------------|
|-------------------------------------------------------|
|-------------------------------------------------------|
|-0----2----4~~~----------------------0----2----4~~~----|
|-0----2----4~~~----------------------0----2----4~~~----|
|-0----2----4~~~----------------------0----2----4~~~----|

Guitar 2 (Aaron)
|-------------------------------------------------------|
|-------------------------------------------------------|
|-/14--13-----------------------------/14--13-------/11-|
|---------14-11--------------11--9/11--------14--11-----|
|----------------11-11/12-12----------------------------|
|-------------------------------------------------------|

Chorus 2 is played x2
(Ben)
|-----|---------------------------------------------------------------------|
|-----|---------------------------------------------------------------------|
|-----|---------------------------------------------------------------------|
|-x-6-|-7---7---7--7-7--x7--6---6---6--6-6--x6--4---4--x2-22-x-2--0---0---0-|
|-x-6-|-7---7---7--7-7--x7--7---7---7--7-7--x7--4---4--x2-22-x-2--0---0---0-|
|-x-6-|-7---7---7--7-7--x7--6---6---6--6-6--x6--4---4--x2-22-x-2--0---0---0-|
 ^----------Play this only the first time.
|---------|
|---------|
|---------|Again, sorry!
|-0-0--x0-|
|-0-0--x0-|
|-0-0--x0-|

Bridge                                x4
|--------------------------------------|
|--------------------------------------|
|--------------------------------------|
|-4----6----7----2----0----0-x2-0----0-|
|-4----6----7----2----0----0-x2-0----0-|
|-4----6----7----2----0----0-x2-0----0-|

Chorus 3                                                                   x2
|---------------------------------------|-----------------------------------|
|---------------------------------------|-----------------------------------|
|---------------------------------------|-----------------------------------|
|-7---7---7--7-7--x7--6---6---6--6-6--x6|-4---4--x2-22-x-2--0---0---0-0-0-x0|
|-7---7---7--7-7--x7--7---7---7--7-7--x7|-4---4--x2-22-x-2--0---0---0-0-0-x0|
|-7---7---7--7-7--x7--6---6---6--6-6--x6|-4---4--x2-22-x-2--0---0---0-0-0-x0|
This part is played acoustically the 1st 
                time.

Outro                                 x2
|--------------------------------------|
|--------------------------------------|
|--------------------------------------|
|-4---4--x2-22-x-2--0---0---0--0-0--x0-|
|-4---4--x2-22-x-2--0---0---0--0-0--x0-|
|-4---4--x2-22-x-2--0---0---0--0-0--x0-|

|--------------------------------------|
|--------------------------------------|
|--------------------------------------|
|-4~~-----2----x-2--0~~~---------------|
|-4~~-----2----x-2--0~~~---------------|
|-4~~-----2----x-2--0~~~---------------|

That's it. Sorry about there mainly being only one guitar part. Enjoy anyways.
Suggest correction
What's this?
You can suggest a correction to this tab. Community and Mods will review your correction and vote to approve or reject it.
comments
print report bad tab
6 comments total. Showing first comments.
-1 reply
iamghost 1,498 wrote on November 16 2009, 10:23 am

it's in drop B my man.

0 reply
aLEC dICKSON 430 wrote on November 16 2009, 07:10 pm

Oh, sorry. I tabbed it in a way that can be played in drop C though

+4 reply
U B the band 5,212 wrote on November 16 2009, 08:57 pm

I play it in Drop C, it's easier to play.

guest
You may want to rate the tab now too:
select rating
Please do not post tabs as comments. Select "correction" instead!