Oops, an error
Loading. Please wait.
We have an official Anthem Of The Angels tab made by UG professional guitarists. Check out the tab »
×

Anthem Of The Angels tab

version 4
version 4

Whole song

  • Will include every precise detail, including bends and barre, power chords.

Interactive

532 views 1 this week
no commentswrite comment
1 2 3 4 5
x 3
add to favorites
×
Save as Personal and add changes to this tab that will be seen only by you. Learn more ›
×
You can save this tab as Personal to edit and correct it or add notes. All changes will be seen only by you. Learn more »
launch autoscroll
font size
0
reset
how to read this tab
guitar tuner
edit
Autoscroll
slow
fast
+/-
esc
set tempo
stop
About this tab version
Will include every precise detail, including bends and barre, power chords. Was this info helpful? Yes No
Tabbed by: SoarStaraptor

Breaking Benjamin - Anthem of the Angels 'Tab'


Includes every precise detail of tab!


Intro: Starts at (0:07)
Lead Guitar:
D------|
A-14---|
F-14---|
C------|
G------|
C------|


Rhythm Guitar:
D-------------------------------------------------------------------------------------------|
A-------------------------------------------------------------------------------------------|
F-------------------------------------------------------------------------------------------|
C-0--0--0--0--x----2--x--2--2--4--4-------------0--0--0--0--x--2--x--2--2--4--4-------------|
G-0--0--0--0--x----2--x--2--2--4--4-------------0--0--0--0--x--2--x--2--2--4--4-------------|
C-0--0--0--0--x----2--x--2--2--4--4----7-6-2-4--0--0--0--0--x--2--x--2--2--4--4----7-6-7-9--|


Lead:
D----------------------------------------------------------------------------------------------| 
A-10--9---------------9b---9-----------------------10--9--------------------------10-9--10-12--|
F--------9---------------------9---------9---11-----------9---------9/11-----------------------|
C--------------11--------------------11-------------------------11-----------------------------|
G----------------------------------------------------------------------------------------------|
C----------------------------------------------------------------------------------------------|

Rhythm:
D---------------------------------------------------------------------------------------------|
A---------------------------------------------------------------------------------------------|
F---------------------------------------------------------------------------------------------|
C-0--0--0--0--x----2--x--2--2--4--4-------------0--0--0--0--x--2--x--2--2--4--4-------------0-|
G-0--0--0--0--x----2--x--2--2--4--4-------------0--0--0--0--x--2--x--2--2--4--4-------------0-|
C-0--0--0--0--x----2--x--2--2--4--4----7-6-2-4--0--0--0--0--x--2--x--2--2--4--4----7-6-2----0-|

Lead:
D----------------------------------------------------------------------------------------------| 
A-10--9---------------9b---9-----------------------10--9--------9-----------------10-9---------|
F--------9---------------------9---------9---11-----------9---------11-----------------9----11-|
C--------------11--------------------11--------------------------------------------------------|
G----------------------------------------------------------------------------------------------|
C----------------------------------------------------------------------------------------------|

VERSE: No Guitars


Chorus: (0:57)
Rhythm:
D-------------------------------------------------------------------------------------------------|
A-------------------------------------------------------------------------------------------------|
F-------------------------6-----------------------------------------------------------------------|
C-X-------7---------------6---------------4----4----4--x--2--2----x--2----0----0----0----0--X--2--|
G-X--7----7---------------4---------------4----4----4--x--2--2----x--2----0----0----0----0--X--2--|
C-X--6----7-------------------------------4----4----4--x--2--2----x--2----0----0----0----0--X--2--|
              There is..     I can see..       Sing the anthem of the angels..

Lead: Same as Rhythm
D-12-|
A-12-|
F----| (Play on last rhythm note) (1:14)
C----|
G----|
C----|

Post-Chorus:
Rhythm:
D-----------------------------------------------------------------------|
A-----------------------------------------------------------------------|
F-----------------------------------------------------------------------|
C-----------------------------------------------------------------------|
G-0---------2----------4--------------------0---------2-----------4-----|
C-0---------2----------4--------------------0---------2-----------4-----|

Lead:
D-----------------------------------------------------------------------|
A-10----9-----------------------------------10----9---------------------|
F---------9-----------------------------------------9---------9/11------|
C-------------11---------------11----9--11--------------11--------------|
G-------------------11---12---------------------------------------------|
C-----------------------------------------------------------------------|


VERSE: No Guitars


Chorus 2:
Rhythm:
D-------------------------------------------------------------------------------------------------|
A-------------------------------------------------------------------------------------------------|
F-------------------------6-----------------------------------------------------------------------|
C-X-------7---------------6---------------4----4----4--x--2--2----x--2----0----0----0----0--X--9--|
G-X--7----7---------------4---------------4----4----4--x--2--2----x--2----0----0----0----0--X--7--|
C-X--6----7-------------------------------4----4----4--x--2--2----x--2----0----0----0----0--X--6--|
              There is..     I can see..       Sing the anthem of the angels..

Lead:
D-----------------------------------------------------------------------------------------|
A-----------------------------------------------------------------------------------------|
F-----------------6-----------------------------------------------------------------------|
C-7---------------6---------------4----4----4--x--2--2----x--2----0----0----0----0--X--2--|
G-7---------------4---------------4----4----4--x--2--2----x--2----0----0----0----0--X--2--|
C-7-------------------------------4----4----4--x--2--2----x--2----0----0----0----0--X--2--|
      I keep..        But I can't..    Sing the anthem of the angels..


Bridge: (2:30)
Rhythm:
D------------------------------------------------------------------------------|
A------------------------------------------------------------------------------|
F------------------------------------------------------------------------------|
C-4---4-----9---9-----7----7--------2----2----2-0----X-X-----2-0---------------|
G-4---4-----7---7-----7----7--------2----2----2-0----X-X-----2-0---------------|
C-4---4-----6---6-----7----7--------2----2----2-0----X-X-----2-0---------------|
                                     Your dead alive..
Lead: Sound like octave chords
D---------------------------------------------------------------------9\7-7-7--|
A-7-7-7-7---9-9-9-9---10-10-10-10--------------------10-10------------x\x-x-x--|
F-x-x-x-x---x-x-x-x---x--x--x--x----9-9-9-9---9-7------------9-7------6\4-4-4--|
C-4-4-4-4---6-6-6-6---7--7--7--7----x-x-x-x------------------------------------|
G-----------------------------------7-7-7-7------------------------------------|
C------------------------------------------------------------------------------|

Rhythm:
D------------------------------------------------------------------------------|
A------------------------------------------------------------------------------|
F------------------------------------------------------------------------------|
C-4---4-----9---9-----7----7--------2----2----2-0----X-X-----2-0---------------|
G-4---4-----7---7-----7----7--------2----2----2-0----X-X-----2-0---------------|
C-4---4-----6---6-----7----7--------2----2----2-0----X-X-----2-0---------------|
                                     Your dead alive..

Lead:
D------------------------------------------------------------------------------|
A-7-7-7-7---9-9-9-9---5-5-5-5-----/-9-9-9-9---9/10-----------9/10--------------|
F-x-x-x-x---x-x-x-x---x-x-x-x-----/-x-x-x-x---x/x------------x/x---------------|
C-4-4-4-4---6-6-6-6---2-2-2-2-----/-6-6-6-6---6/7------------6/7---------------|
G------------------------------------------------------------------------------|
C------------------------------------------------------------------------------|

Rhythm:
D------------------------------------------------------------------------------|
A------------------------------------------------------------------------------|
F------------------------------------------------------------------------------|
C-4---4-----9---9-----7----7--------2----2----2-0----X-X-----2-0---------------|
G-4---4-----7---7-----7----7--------2----2----2-0----X-X-----2-0---------------|
C-4---4-----6---6-----7----7--------2----2----2-0----X-X-----2-0---------------|
                                     Your dead alive..

Lead:
D---------------------------------------------------------------------9\10-10-10--|
A-7-7-7-7---9-9-9-9---10-10-10-10--------------------10-10------------x\x--x--x---|
F-x-x-x-x---x-x-x-x---x--x--x--x----9-9-9-9---9-7------------9-7------6\7--7--7---|
C-4-4-4-4---6-6-6-6---7--7--7--7----x-x-x-x---------------------------------------|
G-----------------------------------7-7-7-7---------------------------------------|
C---------------------------------------------------------------------------------|

Rhythm:
D----------------------------------------------------------------------------------|
A----------------------------------------------------------------------------------|
F----------------------------------------------------------------------------------|
C-4---4-----9---9-----7----7--------2-----2-------2-0----X-X-----2-0-------X-9-----|
G-4---4-----7---7-----7----7--------2-----2-------2-0----X-X-----2-0-------X-7-----|
C-4---4-----6---6-----7----7--------2-----2-------2-0----X-X-----2-0-------X-6-----|
                                     Your dead alive..

Lead:
D---------------------9-9-9-9-----/-12-12-12-12--12\10---x------12-10------X-9-----|
A-7-7-7-7---9-9-9-9---x-x-x-x-----/-x--x--x--x---x-\x----x------x--x-------X-x-----|
F-x-x-x-x---x-x-x-x---6-6-6-6-----/-9--9--9--9---9-\7----x------9--7-------X-6-----|
C-4-4-4-4---6-6-6-6--------------------------------------x-------------------------|
G--------------------------------------------------------x-------------------------|
C--------------------------------------------------------x-------------------------|

Chorus 3:
Both Guitars: Clean Strum --------->     (Distortion)
D-----------------------------------------------------------------------------------------|
A-----------------------------------------------------------------------------------------|
F-----------------6-----------------------------------------------------------------------|
C-7---------------6---------------4----4----4--x--2--2----x--2----0----0----0----0--X--9--|
G-7---------------4---------------4----4----4--x--2--2----x--2----0----0----0----0--X--7--|
C-7-------------------------------4----4----4--x--2--2----x--2----0----0----0----0--X--6--|
      There is..     I can see..       Sing the anthem of the angels..

D-----------------------------------------------------------------------------------------|
A-----------------------------------------------------------------------------------------|
F-----------------6-----------------------------------------------------------------------|
C-7---------------6---------------4----4----4--x--2--2----x--2----0----0----0----0--X--2--|
G-7---------------4---------------4----4----4--x--2--2----x--2----0----0----0----0--X--2--|
C-7-------------------------------4----4----4--x--2--2----x--2----0----0----0----0--X--2--|
      I keep..        But I can't..    Sing the anthem of the angels..

Outro:
D-----------------------------------------------------------|
A-----------------------------------------------------------|
F-----------------------------------------------------------|
C-4----4----4--x--2--2----x--2----0----0----0----0--X--2----|
G-4----4----4--x--2--2----x--2----0----0----0----0--X--2----|
C-4----4----4--x--2--2----x--2----0----0----0----0--X--2----|
       Sing the..

D-------------------------------------|
A-------------------------------------|
F-------------------------------------|
C-4--------2--------4--------0--------|
G-4--------2--------4--------0--------|
C-4--------2--------4--------0--------|
     Sing the anthem of the angels!

That's all!

Key:
/ = slide up
\ = slide down
x = stop note
X = dead note

            
            
Suggest correction
Creating personal tab
Creating personal tab
You can edit any tab online and save it as your Personal.

You can edit, replace or remove any tab part or add personal notes – all changes will be seen only by you.

Personal tabs can be accessed anytime from any device, even offline.
Learn more »
Give kudos to tab author, rate the tab!
1 2 3 4 5
comments
print report bad tab
guest
You may want to rate the tab now too:
select rating
Wanna post a correction for this tab? Suggest correction