Oops, an error
Loading. Please wait.
We have an official Ashes Of Eden tab made by UG professional guitarists. Check out the tab »
×
14,353 views 66 this week
3 commentsread comments
1 2 3 4 5
x 3
add to favorites
×
Save as Personal and add changes to this tab that will be seen only by you. Learn more ›
×
You can save this tab as Personal to edit and correct it or add notes. All changes will be seen only by you. Learn more »
launch autoscroll
font size
0
reset
how to read this tab
guitar tuner
edit
Autoscroll
slow
fast
+/-
esc
set tempo
stop
-------------------------------------------------------------------------------
                             Ashes of Eden - Breaking Benjamin
                                     Dark Before Dawn
-------------------------------------------------------------------------------
Tabbed by: Joe Cheeley
E-mail: cheeleyjoseph@gmail.com

Tuning: Drop-C   C G C F A D

[Intro & Verse]
d|---------------------------------------------------------------------------|
A|-------6----10------------6-----10--------6----10---------6--10--8---------|
F|---------------------------------------------------------------------------|
C|---------------------------------------------------------------------------|
G|------------------------------------------------------3--------------------|
C|---0----------------8------------------3-----------------------------------|  x4

[Chorus]
d|---------------------------------------------------------------------------|
A|-------6---10---------6---10------------6----10----------6----10-----------|
F|---------------------------------------------------------------------------|
C|---------------------------------------------------------------------------|
G|-------------------3-------------------------------------------------------|
C|----0-------------------------------8-----------------8--------------------|  x2

d|---------------------------------------------------------------------------|
A|------6---10------------6---10--------------6----10---------6--11--10------|
F|---------------------------------------------------------------------------|
C|---------------------------------------------------------------------------|
G|-------------------3-------------------------------------------------------|
C|---3------------------------------------8----------------8-----------------|  x2

[Verse] x3
[Chorus] x1
[Break\Chorus] x1
[Chorus] x1

            
            
Suggest correction
Creating personal tab
Creating personal tab
You can edit any tab online and save it as your Personal.

You can edit, replace or remove any tab part or add personal notes – all changes will be seen only by you.

Personal tabs can be accessed anytime from any device, even offline.
Learn more »
Give kudos to tab author, rate the tab!
1 2 3 4 5
comments
print report bad tab
3 comments total.
0 reply
Maximumoftwenty 54 Jul 14, 2015 10:06 PM

It's so much easier to play it like this:

d|-------1----5-------------1-----5------------1-----5--------1--5---3--|
A|----------------------------------------------------------------------|
F|----------------------------------------------------------------------|
C|----------------------------------------------------------------------|
G|--------------------3-----------------------------------3-------------|
C|---0-----------------------------------3------------------------------|

-2 reply
Maximumoftwenty 54 Jul 14, 2015 10:28 PM

Or you could do this to avoid stretching your fingers so much.

eb|-------0----4-------------0-----4------------0-----4--------0--4---2--|
A |----------------------------------------------------------------------|
F |----------------------------------------------------------------------|
C |----------------------------------------------------------------------|
G |--------------------3-----------------------------------3-------------|
C |---0-----------------------------------3------------------------------|

+2 reply
amfogwell 30 Feb 17, 2016 12:23 PM

d|----------------------------------------------------------------------|
A|--------10---------------10------------------10-------------10--8-----|
F|------10--------------10------------------10-------------10-----------|
C|----------------------------------------------------------------------|
G|----------------------------------------8-----------------------------|
C|---0----------------8---------------------------------10--------------|

my vote is for this

guest
You may want to rate the tab now too:
select rating
Wanna post a correction for this tab? Suggest correction