Oops, an error
Loading. Please wait.

Away Tab

version 6
version 6
3,103 views 1 this week
no commentswrite comment
1 2 3 4 5
x 4
add to favorites
launch autoscroll
font size
0
reset
how to read this tab
guitar tuner
Autoscroll
slow
fast
+/-
esc
set tempo
stop
Help us to improve Ultimate-Guitar.com Take our survey!
×
Author
Difficulty
Tuning
intermediate
C G C F A D
-------------------------------------------------------------------------------
                             Away - Breaking Benjamin
-------------------------------------------------------------------------------
Tabbed by: metalmonkey147
Email:

Tuning: Drop C

|---------------------------------------------------------------------------|
|---------------------------------------------------------------------------|
|---------------------------------------------------------------------------|
|---------6-6-6-------6-6-6-3--1----------------------------3--1------------|
|---------------------------3--1----------6-6-6-------6-6-6-3--1------------|
|---3-3-3-------3-3-3-------3--1----3-3-3-------3-3-3-------3--1------------|

|---------------------------------------------------------------------------|
|---------------------------------------------------------------------------|
|---------------------------------------------------------------------------|
|---------------------------3--1----------------------------3--6------------|
|---------4-4-4-------4-4-4-3--1----------6-6-6-------6-6-6-3--6------------|
|---3-3-3-------3-3-3-------3--1----3-3-3-------3-3-3-------3--6------------|

 you can sorta make that wah wah sound at this part by doing small bends while
 your holding the note

|---------------------------------------------------------------------------|
|---------------------------------------------------------------------------|
|---10----------10br-----------10br-------------10br-----------10br---------|
|---------------------------------------------------------------------------|
|---------------------------------------------------------------------------|
|---------------------------------------------------------------------------|

 bass plays for a bit then guitar comes back in

|---------------------------------------------------------------------------|
|---------------------------------------------------------------------------|
|---------------------------------------------------------------------------|
|---------6-6-6-------6-6-6-3--1----------------------------3--1------------|
|---------------------------3--1----------6-6-6-------6-6-6-3--1------------|
|---3-3-3-------3-3-3-------3--1----3-3-3-------3-3-3-------3--1------------|
    . . .       . . .               . . .       . . .
|---------------------------------------------------------------------------|
|---------------------------------------------------------------------------|
|---------------------------------------------------------------------------|
|---------------------------3--1----------------------------3--1------------|
|---------4-4-4-------4-4-4-3--1----------6-6-6-------6-6-6-3--1------------|
|---3-3-3-------3-3-3-------3--1----3-3-3-------3-3-3-------3--1------------|
    . . .       . . .               . . .       . . .
|---------------------------------------------------------------------------|
|---------------------------------------------------------------------------|
|---6---6-------------6---6-----------6---6------------6---6----------------|
|---6---6----6----1---6---6----6---1--6---6----6---1---6---6----6---1-------|
|---4---4----6----1---4---6----6---1--4---4----6---1---4---4----6---1-------|
|------------6----1------------6---1-----------6---1------------6---1-------|

|---------------------------------------------------------------------------|
|---------------------------------------------------------------------------|
|---------------------------------------------------------------------------|
|---------6-6-6-------6-6-6-3--1----------------------------3--1------------|
|---------------------------3--1----------6-6-6-------6-6-6-3--1------------|
|---3-3-3-------3-3-3-------3--1----3-3-3-------3-3-3-------3--1------------|

|---------------------------------------------------------------------------|
|---------------------------------------------------------------------------|
|---------------------------------------------------------------------------|
|---------------------------3--1----------------------------3--6------------|
|---------4-4-4-------4-4-4-3--1----------6-6-6-------6-6-6-3--6------------|
|---3-3-3-------3-3-3-------3--1----3-3-3-------3-3-3-------3--6------------|

bass again, then back to guitar

|---------------------------------------------------------------------------|
|---------------------------------------------------------------------------|
|---------------------------------------------------------------------------|
|---------6-6-6-------6-6-6-3--1----------------------------3--1------------|
|---------------------------3--1----------6-6-6-------6-6-6-3--1------------|
|---3-3-3-------3-3-3-------3--1----3-3-3-------3-3-3-------3--1------------|
    . . .       . . .               . . .       . . .
|---------------------------------------------------------------------------|
|---------------------------------------------------------------------------|
|---------------------------------------------------------------------------|
|---------------------------3--1----------------------------3--1------------|
|---------4-4-4-------4-4-4-3--1----------6-6-6-------6-6-6-3--1------------|
|---3-3-3-------3-3-3-------3--1----3-3-3-------3-3-3-------3--1------------|
    . . .       . . .               . . .       . . .
|---------------------------------------------------------------------------|
|---------------------------------------------------------------------------|
|---6---6-------------6---6-----------6---6------------6---6----------------|
|---6---6----6----1---6---6----6---1--6---6----6---1---6---6----6---1-------|
|---4---4----6----1---4---6----6---1--4---4----6---1---4---4----6---1-------|
|------------6----1------------6---1-----------6---1------------6---1-------|

|---------------------------------------------------------------------------|
|---------------------------------------------------------------------------|
|---------------------------------------------------------------------------|
|---13\--------------------------------------6---1--------------------------|
|---13\--------------------------------------6---1--------------------------|
|---13\---3-1-3-6--1-3--X-X-X--1-3-1-3-6--1--6---1--------------------------|

|---------------------------------------------------------------------------|
|---------------------------------------------------------------------------|
|---------------------------------------------------------------------------|
|----------------------------------6--1---------------------------------6--1|
|----------------------------------6--1---------------------------------6--1|
|-3-1-3-6--1-3-X-X-X--1-3-1-3-6--1-6--1--3-1-3-6--1-6-X-X-X-1-3-1-3-6-1-6--1|

|---------------------------------------------------------------------------|
|---------------------------------------------------------------------------|
|---6---6-------------6---6-----------6---6------------6---6----------------|
|---6---6----6----1---6---6----6---1--6---6----6---1---6---6----6---1-------|
|---4---4----6----1---4---6----6---1--4---4----6---1---4---4----6---1-------|
|------------6----1------------6---1-----------6---1------------6---1-------|


|---------------------------------------------------------------------------|
|---------------------------------------------------------------------------|
|---------------------------------------------------------------------------|
|---3-3-3-6-6-6-1-1-1--11\------6-6-6-5-5-5--1--3\--------------------------|
|---3-3-3-6-6-6-1-1-1--11\------6-6-6-5-5-5--1--3\--------------------------|
|---3-3-3-6-6-6-1-1-1--11\------6-6-6-5-5-5--1--3\--------------------------|

|---------------------------------------------------------------------------|
|---------------------------------------------------------------------------|
|---------------------------------------------------------------------------|
|---3-3-3-6-6-6-1-1-1--11\------6-6-6-5-5-5--1--3\--------------------------|
|---3-3-3-6-6-6-1-1-1--11\------6-6-6-5-5-5--1--3\--------------------------|
|---3-3-3-6-6-6-1-1-1--11\------6-6-6-5-5-5--1--3\--------------------------|

|---------------------------------------------------------------------------|
|---------------------------------------------------------------------------|
|---------------------------------------------------------------------------|
|---3-3-3-6-6-6-1-1-1--11\------6-6-6-5-5-5--1--3\------X-X-----------------|
|---3-3-3-6-6-6-1-1-1--11\------6-6-6-5-5-5--1--3\------X-X-----------------|
|---3-3-3-6-6-6-1-1-1--11\------6-6-6-5-5-5--1--3\------X-X-----------------|

|---------------------------------------------------------------------------|
|---------------------------------------------------------------------------|
|---------------------------------------------------------------------------|
|---3-3-3-6-6-6-1-1-1--11\------6-6-6-5-5-5--1--3---------------------------|
|---3-3-3-6-6-6-1-1-1--11\------6-6-6-5-5-5--1--3---------------------------|
|---3-3-3-6-6-6-1-1-1--11\------6-6-6-5-5-5--1--3---------------------------|


************************************

| /   slide up
| \   slide down
| h   hammer-on
| p   pull-off
| ~   vibrato
| +   harmonic
| x   Mute note
| b   Bend
| pb  Pre-bend
| br  Bend release
| pbr Pre-bend release
| brb Bend release bend

************************************
Suggest correction
comments
print report bad tab
guest
You may want to rate the tab now too:
select rating
Wanna post a correction for this tab? Suggest correction