Oops, an error
Loading. Please wait.

Breath Tab

version 1
111,044 views 24 this week
9 commentsread comments
1 2 3 4 5
x 9
add to favorites
launch autoscroll
font size
0
reset
how to read this tab
guitar tuner
Autoscroll
slow
fast
+/-
esc
set tempo
stop
Help us to improve Ultimate-Guitar.com Take our survey!
×
Author
Difficulty
Tuning
intermediate
B F# B E G# C#
Breaking Benjamin
Breath
Phobia

Tabbed by: I-Z
Email: i-z@hotmail.com

Tuning: Drop Bb

This is an awesome song by Breaking Benjamin I had to learn it and tab it out. This is 
favorite Breaking Benjamin song out of all 3 albums. I didn’t tab out all the strumming 
but its pretty easy 2 figure out


Guitar 1-Aaron
Guitar 2-Ben

Intro
Guitar 2 Clean
C |-0---------------------------------------------------------------------|
G |-0---------------------------------------------------------------------|
D#|-2-------5-------------------------------------------------------------|
A#|-2-------5-------------------------------------------------------------|
F |-0-------3-------------------------------------------------------------|
A#|-----------------------------------------------------------------------|

Distortion
Guitar 1
C |-15-12-10-12-13-12-8---19-15-20-19-15---8-8h10-12-10-3-7-5-------------|
G |-----------------------------------------------------------------------|
D#|--------x2------------------x2-----------------------------------------|
A#|-----------------------------------------------------------------------|
F |-----------------------------------------------------------------------|
A#|-----------------------------------------------------------------------|

Distortion
Guitar 2
C |-----------------------------------------------------------------------|
G |-----------------------------x2----------------------------------------|
D#|-5-------2------------------------------5---------7----4-2-------------|
A#|-5-------2--------------1010-1010--7----5---------7----4-2-------------|
F |-3-------0--------------1010-1010--7----3---------5----2-0-------------|
A#|------------------------1010-1010--7-----------------------------------|

Verse
Guitar-1
C |------3-7-3-5------3-7-3-5-------3-8-3-3-5-------5-8-7-5-7-------------|
G |-----------------------------------------------------------------------|
D#|---2------------2-------------5---------------2------------------------|
A#|--2------------2-------------5---------------2---------------x2--------|
F |-0------------0-------------3---------------0--------------------------|
A#|-----------------------------------------------------------------------|

Pre-Chorus
Guitar 2
C |-----------------------------------------------------------------------|
G |---(5)-----------------------------------------------------------------|
D#|---(5)-------------2----------2222-------------------------------------|
A#|--xx3--------x2----2----------2222—-333xxx333--------------------------|
F |--xx3--------------0----------0000—-333xxx333--------------------------|
A#|--xx3--------------0----------0000—-333xxx333--------------------------|

Guitar 1
C |-----------------------------------------------------------------------|
G |-----------------------------------------------------------------------|
D#|-----------------------------------------------------------------------|
A#|-------------x2--------------------------------------------------------|
F |-------5555------------5555--------------------------------------------|
A#|-------0000------------0000--------------------------------------------|


Chorus
Guitar 1
C |clean----distortion----------------------------------------------------|
G |-(0)-----------------5------7------------------------------------------|
D#|--5----------2-------5------7------------------------------------------|
A#|--5----------2-------3------5------------------------------------------|
F |--3----------0-------3------5------------------------------------------|
A#|-------------0-------3------5------------------------------------------|


Verse
Guitar-1
C |------3-7-3-5------3-7-3-5-------3-8-3-3-5-------5-8-7-5-7-------------|
G |-----------------------------------------------------------------------|
D#|---2------------2-------------5---------------2------------------------|
A#|--2------------2-------------5---------------2-------------------------|
F |-0------------0-------------3---------------0--------------------------|
A#|-----------------------------------------------------------------------|


Pre-Chorus
Guitar 2
C |-----------------------------------------------------------------------|
G |---(5)-----------------------------------------------------------------|
D#|---(5)-------------2----------2222-------------------------------------|
A#|--xx3--------x2----2----------2222—-333xxx333--------------------------|
F |--xx3--------------0----------0000—-333xxx333--------------------------|
A#|--xx3--------------0----------0000—-333xxx333--------------------------|



Guitar 1
C |-----------------------------------------------------------------------|
G |-----------------------------------------------------------------------|
D#|-----------------------------------------------------------------------|
A#|-------------x2--------------------------------------------------------|
F |-------5555------------5555--------------------------------------------|
A#|-------0000------------0000--------------------------------------------|


Chorus a little different all distortion
Guitar 1
C |-----------------------------------------------------------------------|
G |-(0)---------------5------7--------------------------------------------|
D#|--5--------2-------5------7--------------------------------------------|
A#|--5--------2-------3------5--------------------------------------------|
F |--3--------0-------3------5--------------------------------------------|
A#|-----------0-------3------5--------------------------------------------|


Bridge
Guitar 1
C |12-12-12-12-12-12-12-12-12-12-12-12-12-12-12-13-13-13-13-13-13-13-13-13|
G |------------.--.-----.--.-----.--.-----.-----------------.--.-----.--.-|
D#|-----------------------------------------------------------------------|
A#|-----------------------------------------------------------------------|
F |-----------------------------------------------------------------------|
A#|-----------------------------------------------------------------------|


C |12-12-12-12-12-12-10-10-10-10-10-10-12-13-12-12------------------------|
G |---.--.-----.-----------------.--.-------------------------------------|
D#|-----------------------------------------------------------------------|
A#|-----------------------------------------------------------------------|
F |-----------------------------------------------------------------------|
A#|-----------------------------------------------------------------------|

Guitar 2
this part is hard to tab the strumming so just listen to the song and you can hear some 
mutes during some of the notes
C |-----------------------------------------------------------------------|
G |--------5-----7------5-------------------------------------------------|
D#|--2-----5-----7------5-------------------------------------------------|
A#|--2-----3-----5------3-------------------------------------------------|
F |--0-----3-----5------3-------------------------------------------------|
A#|--0-----3-----5------3-------------------------------------------------|




Both guitars
Where Ben starts singing during the bridge
C |-----------------------------------------------------------------------|
G |--------5555--7777-----------------------------------------------------|
D#|--2222--5555--7777-----------------------------------------------------|
A#|--2222--3333--5555---3xxx----------------------------------------------|
F |--0000--3333--5555---3xxx----------------------------------------------|
A#|--0000--3333--5555---3xxx----------------------------------------------|


Chorus
Guitar 1
C |-----------------------------------------------------------------------|
G |-------------------5------7--------------------------------------------|
D#|--5--------2-------5------7--------------------------------------------|
A#|--5--------2-------3------5--------------------------------------------|
F |--3--------0-------3------5--------------------------------------------|
A#|-----------0-------3------5--------------------------------------------|


Guitar 1
End with this
C |---5-8h7-5-8-----------------------------------------------------------|
G |-----------------------------------------------------------------------|
D#|-----------------------------------------------------------------------|
A#|-----------------------------------------------------------------------|
F |-----------------------------------------------------------------------|
A#|-----------------------------------------------------------------------|


Please Rate!!!!!!!!
()=only play if u want its up to what u think sounds best
Suggest correction
comments
print report bad tab
9 comments total. Showing first comments.
0 reply
U B the band 3,023 Aug 14, 2006 11:32 PM

this is a sweet song good job....5 stars-PMT

0 reply
guitarsuperman2 31 Aug 15, 2006 07:09 AM

havny tried it yet lol my buddy's locked his bedroom with his g/f lol so i'll wait. but if it's wrong i'll tab it right...badass song tho

0 reply
Phildo64 10 Aug 21, 2006 12:34 PM

clean intro is wrong.

guest
You may want to rate the tab now too:
select rating
Wanna post a correction for this tab? Suggest correction