Oops, an error
Loading. Please wait.

Breath Bass Tab

version 2
version 2

Whole song

Interactive

5,952 views 1 this week
no commentswrite comment
1 2 3 4 5
please rate
add to favorites
launch autoscroll
font size
0
reset
guitar tuner
Autoscroll
slow
fast
+/-
esc
set tempo
stop
Help us to improve Ultimate-Guitar.com Take our survey!
×
Author
“Breath” – Breaking Benjamin

Intro
D#|------------------------|
A#|------------------------|
F |--3-3-3-3-3--2-2-2-2-2--|
A#|------------------------|

D#|----------------------------------------------------------|
A#|----------------------------------------------------------|
F |--0-0-0-0--0-0-0---0-0-0-0--0-0-0-----3-3-3-3-3--2--2-----|
A#|----------------------------------------------------------|

Verse 1 
Part 1
D#|----------------------|
A#|------2-2—--2-2---2---|
F |-0-0------0-----0---0-|
A#|----------------------|

Part 2
D#|-----------------1-2-1------|
A#|------2-—--2-2-4-------4----|
F |-0-0-----0------------------|
A#|----------------------------|

Part 3
D#|---------------------------------------------|
A#|-2-2-2-2-2-2-2-2-5-5-5-5-2-2-2-2-2-2-2-5-5-5-|
F |---------------------------------------------|
A#|---------------------------------------------|

Pre-Chorus
D#|------------------------------------------------|
A#|-3-3-3---3-3-3---7-7-7---7-3-7-9--7-7-7--7-7-7--|
F |------------------------------------------------|
A#|------------------------------------------------|

Chorus 1
D#|------------------------------------------------------|
A#|-----------------1-2-3-3-3-3-3--3-3-3-3-3-5-5-5-5-5---|
F |-0-0-0-0-0-0-0-0--------------------------------------|
A#|------------------------------------------------------|

Verse

Pre-Chorus

Chorus 2
D#|-------------------------------------------------|
A#|-------------------------------------------------|
F |-3-3-x-3-3-x-3-3-3--x-3-3-2-0-0-0-x-0-0-x-0-0----|
A#|-----------------------------------------------5-|

D#|------------------------------------------------|
A#|-3-3-3--3-3--3-3--3-3-3--5-5-5--5-5--5-5--5-5-5-|
F |------------------------------------------------|
A#|------------------------------------------------|

Bridge
D#|-------------------------------------------------------------------------------|
A#|-------------------------------------------------------------------------------|
F-|-0-0-0-0-x-0-0-x-x-x-----------------------------------------------------------|
A#|---------------------3-3-3-3-x-3-3-x-x-x--5-5-5-5-x-5-5-x-x-x-3-3-3-3-x-3-3-3--|

D#|-------------------------------------------------------------------|
A#|-------------------------------------------------------------------|
F |-0-0-0-0-0-0-0-0---------------------------------------------------|
A#|-----------------3-3-3-3-3-3-3-3-5-5-5-5-5-5-5-5-5-3-3-3-3-3-3-3-3-|

Chorus 2

Ending
D#|-------------|
A#|-------------|
F |-0-----0-0-2-|
A#|-------------|
Suggest correction
Give kudos to tab author, rate the tab!
1 2 3 4 5
comments
print report bad tab
guest
You may want to rate the tab now too:
select rating
Wanna post a correction for this tab? Suggest correction