Oops, an error
Loading. Please wait.

Breath Bass Tab

version 3
version 3
11,120 views 12 this week
no commentswrite comment
1 2 3 4 5
x 7
add to favorites
launch autoscroll
font size
0
reset
guitar tuner
Autoscroll
slow
fast
+/-
esc
set tempo
stop
Help us to improve Ultimate-Guitar.com Take our survey!
×
Author
“Breath” – Breaking Benjamin

           Tuning : Bb - F - Bb - Eb


Intro (After Ben's clean intro)
Eb|-----------------------------|
Bb|-----------------------------|
F |-----------------------------|
Bb|--10-10-10-10-10--9-9-9-9-9--|

Eb|----------------------------------------------------------------|
Bb|----------------------------------------------------------------|
F |--0-0-0-0--0-0-0---0-0-0-0--0-0-0-------------------------------|
Bb|------------------------------------10-10-10-10-10--9-9-9-9-9---|

Verse 1 (X2)
Eb|-------------------------|
Bb|------7-7—--7-7---7---7--|
F |-0-0------0-----0---0----| x3
Bb|-------------------------|

Eb|------------------------------|
Bb|-----7-7—--7--7h8---10p7------|
F |-0-0-----0---0----0-----------|
Bb|------------------------------|

Eb|-----------------------------------------------------------------------|
Bb|-----------------------------------------------------------------------|
F |-8-8-8-8-8-8-8-8-8-8-8-8-8-10-10-10-8-8-8-8-8-8-8-8-8-8-8-8-8-10-10-10-|
Bb|-----------------------------------------------------------------------|

   Eb|----------------------------------------------|
   Bb|------7-7—--7-7---7---7------7-7---7--7h8---5-| < 1st time
   F |-0-0------0-----0---0----0-0-----0---0----0---|
   Bb|----------------------------------------------|

     Eb|-------------------------------------|
     Bb|------7-7—--7-7---7---7------7-7---7~| < 2nd time
     F |-0-0------0-----0---0----0-0-----0---|
     Bb|-------------------------------------|


Pre-Chorus 1
Eb|------------------------------------------------------------|
Bb|------------------------------------------------------------|
F |----------------------------------0--0-0--0--0-----0---0--2-|
Bb|-3--3-3--3--3-----3--3-3--3--3-----------------------2------|

Eb|---------------------------------|
Bb|---------------------------------|
F |---------------------------------|
Bb|-3--3-3--3--3-----3--3-3--3--3---|

Chorus 1
Eb|----------|-------------------------------------------------------------|
Bb|---PAUSE--|-------------------------------------------------------------|
F |----------|-0--0-0--0--0--0--0--0--0-0--0-------------------------------|
Bb|----------|-------------------------------2--3--3-3--3--3--3--3--3--3-3-|

Eb|-----------------------------|
Bb|-----------------------------|
F |-----------------------------|
Bb|-3--3--5--5-5--5--5--5--5--5~|

Verse 2
Eb|----------------------------------------------|
Bb|------7-7—--7-7---7---7------7-7---7--7h8---5-|
F |-0-0------0-----0---0----0-0-----0---0----0---|
Bb|----------------------------------------------|

Eb|-------------------------|
Bb|------7-7—--7-7---7---7--|
F |-0-0------0-----0---0----| x3
Bb|-------------------------|

Eb|------------------------------|
Bb|-----7-7—--7--7h8---10p7------|
F |-0-0-----0---0----0-----------|
Bb|------------------------------|

Eb|--------------------------------------------------------------------|
Bb|--------------------------------------------------------------------|
F |-8-8-8-8-8-8-8-8-8-8-8-8-8-8-8-8-8-8-8-8-8-8-8-8-8-8-8-8-8-10-10-10-|
Bb|--------------------------------------------------------------------|

Eb|-------------------------------------|
Bb|------7-7—--7-7---7---7------7-7---7~|
F |-0-0------0-----0---0----0-0-----0---|
Bb|-------------------------------------|

Pre-Chorus 2
 (Same as Pre-Chorus 1)

Chorus 2
Eb|-----------------------------------------------|
Bb|-----------------------------------------------|
F |-3-3--3-3-3--3-3--3-3--2--0-0--0-0-0--0-0--0-0-|
Bb|-----------------------------------------------|

Eb|---------------------------------------------------------------------|
Bb|---------------------------------------------------------------------|
F |--------------------------------0-0----------------------------------|
Bb|-2--3--3--3--3--3-3-3--3--3--3-------5--5--5--5--5-5-5--5--5--5--5-5-|

Bridge
Eb|---------------------------------------------|
Bb|---------------------------------------------|
F |-0~-0-0---------------------------3--3--3--3-|
Bb|------------3~-3-3-----5~-5-5----------------|

Eb|---------------------------------------------------------------------|
Bb|---------------------------------------------------------------------|
F |-0--0--0--0--------------------------3-3-3-3-3-3-3-3-2-2-2-2-2-2-2-2-|
Bb|-------------3--3--3--3--5--5--5--5----------------------------------|

Chorus 2
Eb|---------------------------------------------------------|
Bb|---------------------------------------------------------|
F |-3--3--3-3--3--3-3--3--3-3--2--0--0--0-0--0--0-0--0--0-0-|
Bb|---------------------------------------------------------|

Eb|-----------------------------------------------------------------|
Bb|-----------------------------------------------------------------|
F |-----------------------------------------------------------------|
Bb|-2--3--3--3-3--3--3-3--3--3-3--3--5--5--5-5--5--5-5--5--5-5--5-5-|

Outro
Eb|-------------|
Bb|-------------|
F |-0~~~~~0~~~~-|
Bb|-------------|

                    Be lenient, as this is my first tab.
Suggest correction
comments
print report bad tab
guest
You may want to rate the tab now too:
select rating
Wanna post a correction for this tab? Suggest correction