Oops, an error
Loading. Please wait.
515 views 1 this week
no commentswrite comment
1 2 3 4 5
2 more votes to show rating
add to favorites
×
Save as Personal and add changes to this tab that will be seen only by you. Learn more ›
×
You can save this tab as Personal to edit and correct it or add notes. All changes will be seen only by you. Learn more »
launch autoscroll
font size
0
reset
how to read this tab
guitar tuner
backing track
0:00
0:00
edit
Autoscroll
slow
fast
+/-
esc
set tempo
stop
-------------------------------------------------------------------------------
                            BREATH - Breaking Benjamin
-------------------------------------------------------------------------------
Tabbed by: amun130
E-mail: amun130@mail.bg
Tuning: Drop D

I know this isn't the right tuning but I've decided to make a tab in Drop D so it will be easier for
some people to play it.


Intro:
   GTR I
e|-------------------------------------------------------------------------------------------|
B|-------------------------------------------------------------------------------------------|
G|-------------------------------------------------------------------------------------------|
D|-5--5--5--5--x--x--5--x--x--5--x--x--6~------------5--5--5--5--x--x--5--x--x--5--x--x--6~--|
A|-3--3--3--3--x--x--3--x--x--3--x--x--3~------------3--3--3--3--x--x--3--x--x--3--x--x--3~--|
D|-3--3--3--3--x--x--3--x--x--3--x--x--3~------------3--3--3--3--x--x--3--x--x--3--x--x--3~--|

   GTR I
|e|---------------------------------------------------------------------------|
|B|---------------------------------------------------------------------------|
|G|---------------------------------------------------------------------------|
|D|--6------6--6--6---6--------------5-------5---5---5----5-------------------|
|A|--6------6--6--6---6--------------6-------6---6---6----6-------------------|
|D|--6------6--6--6---6--------------5-------5---5---5----5-------------------|
|  GTR II
|e|-11~---------------------------------11------------------------------------|
|B|---------13---11----13/14--13----------------13---11----13/14--13----------|
|G|------------------------------13----------------------------------13-------|
|D|---------------------------------------------------------------------------|
|A|---------------------------------------------------------------------------|
|D|---------------------------------------------------------------------------|

   GTR I
|e|-------------------------------------------------------------------------------------------|
|B|-------------------------------------------------------------------------------------------|
|G|-------------------------------------------------------------------------------------------|
|D|-5--5--5--5--x--x--5--x--x--5--x--x--6~------------5--5--5--5--x--x--5--x--x--5--x--x--6~--|
|A|-3--3--3--3--x--x--3--x--x--3--x--x--3~------------3--3--3--3--x--x--3--x--x--3--x--x--3~--|
|D|-3--3--3--3--x--x--3--x--x--3--x--x--3~------------3--3--3--3--x--x--3--x--x--3--x--x--3~--|
|  GTR II
|e|--15~---------------16--15----------------15~---------------16--15-------------------------|
|B|--------16~-----------------16~------------------16~-----------------16~-------------------|
|G|-------------------------------------------------------------------------------------------|
|D|-------------------------------------------------------------------------------------------|
|A|-------------------------------------------------------------------------------------------|
|D|-------------------------------------------------------------------------------------------|

   GTR I
|e|---------------------------------------------------------------------------|
|B|---------------------------------------------------------------------------|
|G|---------------------------------------------------------------------------|
|D|--6------6--6--6---6--------------5-------5---5---5----5-------------------|
|A|--6------6--6--6---6--------------6-------6---6---6----6-------------------|
|D|--6------6--6--6---6--------------5-------5---5---5----5-------------------|
|  GTR II
|e|-------------8----------6~-------------------------------------|
|B|--9~----------------------------8-----6~-----------------------|
|G|----------8-----------------8~---------------------------------|
|D|---------------------------------------------------------------|
|A|---------------------------------------------------------------|
|D|---------------------------------------------------------------|


Verse:
   GTR I
|e|---------------------------------------------------------------------------|
|B|---------------------------------------------------------------------------|
|G|---------------------------------------------------------------------------|
|D|--3--------------------------------------3---------------------------------|
|A|--3--------------------------------------3---------------------------------|
|D|--3--------------------------------------3---------------------------------|
|  GTR II
|e|-----------4--------------------------------------4-----------4~-----------|
|B|--------6-----6/8--6---------------------------6-----6/8--6----------------|
|G|-----5-----------------5~-------------------5------------------------------|
|D|---------------------------------------------------------------------------|
|A|---------------------------------------------------------------------------|
|D|--3--------------------------------------3---------------------------------|

   GTR I
|e|---------------------------------------------------------------------------|
|B|---------------------------------------------------------------------------|
|G|--6------------------------------------------------------------------------|
|D|--6--------------------------------------3---------------------------------|
|A|--4--------------------------------------3---------------------------------|
|D|-----------------------------------------3---------------------------------|
|  GTR II
|e|-----------4--------------------------------------4-----------4~-----------|
|B|-----4--6------4--4h6------------------------------6-----6/8--6------------|
|G|--6-----------------------------------------5------------------------------|
|D|---------------------------------------------------------------------------|
|A|---------------------------------------------------------------------------|
|D|-----------------------------------------3---------------------------------| All Verse (x2)

Pre-Chorus:
e|------------------------------------------------------------------------------------------------------------|
B|--------------------------10-10-10---------------------10-10-10---------------------10-10-10----------------|
G|----------------------------------------------------------------10--10-10-10--10-10----------10-----10--12--|
D|--xxx-11--11-11-11--11-11----------11--11-11-11--11-11----------10--10-10-10--10-10----------10-10--10--12--|
A|--xxx-11--11-11-11--11-11----------11--11-11-11--11-11----------8---8--8--8---8--8-----------8--10--8---10--|
D|--xxx-11--11-11-11--11-11----------11--11-11-11--11-11------------------------------------------10----------|

e|---------------------------------------------------------------------------|
B|---------------------------------------------------------------------------|
G|---------------------------------------------------------------------------|
D|--11--11-11-11-11-xxx-11--11-11-11-11-11-11--6--6-6-6-6-6-6--6-6-6-6--5----|
A|--11--11-11-11-11-xxx-11--11-11-11-11-11-11--6--6-6-6-6-6-6--6-6-6-6--6----|
D|--11--11-11-11-11-xxx-11--11-11-11-11-11-11--6--6-6-6-6-6-6--6-6-6-6--5----|

Chorus:
e|----------------------------------------------------------------------------------|
B|----------------------------------------------------------------------------------|
G|----------------------------------------------------------------------------------|
D|--xx---3--3-3-3---3--3-3-3---3----10---11---11--11----11---11--11----1--1---1-----|
A|--xx---3--3-3-3---3--3-3-3---3----10---11---11--11----11---11--11----1--1---1-----|
D|--xx---3--3-3-3---3--3-3-3---3----10---11---11--11----11---11--11----1--1---1-----|

   GTR I
|e|-----------------------------------------|
|B|-----------------------------------------|
|G|-----------------------------------------|
|D|--3--------------------------------------|
|A|--3--------------------------------------|
|D|--3--------------------------------------|
|  GTR II
|e|-----------4-----------------------------|
|B|--------6-----6/8--6---------------------|
|G|-----5-----------------5~----------------|
|D|-----------------------------------------|
|A|-----------------------------------------|
|D|--3--------------------------------------|

Verse:
   GTR I
|e|---------------------------------------------------------------------------|
|B|---------------------------------------------------------------------------|
|G|---------------------------------------------------------------------------|
|D|--3--------------------------------------3---------------------------------|
|A|--3--------------------------------------3---------------------------------|
|D|--3--------------------------------------3---------------------------------|
|  GTR II
|e|-----------4--------------------------------------4-----------4~-----------|
|B|--------6-----6/8--6---------------------------6-----6/8--6----------------|
|G|-----5-----------------5~-------------------5------------------------------|
|D|---------------------------------------------------------------------------|
|A|---------------------------------------------------------------------------|
|D|--3--------------------------------------3---------------------------------|

   GTR I
|e|---------------------------------------------------------------------------|
|B|---------------------------------------------------------------------------|
|G|--6------------------------------------------------------------------------|
|D|--6--------------------------------------3---------------------------------|
|A|--4--------------------------------------3---------------------------------|
|D|-----------------------------------------3---------------------------------|
|  GTR II
|e|-----------4--------------------------------------4-----------4~-----------|
|B|-----4--6------4--4h6------------------------------6-----6/8--6------------|
|G|--6-----------------------------------------5------------------------------|
|D|---------------------------------------------------------------------------|
|A|---------------------------------------------------------------------------|
|D|-----------------------------------------3---------------------------------|

Pre-Chorus:
e|------------------------------------------------------------------------------------------------------------|
B|--------------------------10-10-10---------------------10-10-10---------------------10-10-10----------------|
G|----------------------------------------------------------------10--10-10-10--10-10----------10-----10--12--|
D|--xxx-11--11-11-11--11-11----------11--11-11-11--11-11----------10--10-10-10--10-10----------10-10--10--12--|
A|--xxx-11--11-11-11--11-11----------11--11-11-11--11-11----------8---8--8--8---8--8-----------8--10--8---10--|
D|--xxx-11--11-11-11--11-11----------11--11-11-11--11-11------------------------------------------10----------|

e|---------------------------------------------------------------------------|
B|---------------------------------------------------------------------------|
G|---------------------------------------------------------------------------|
D|--11--11-11-11-11-xxx-11--11-11-11-11-11-11--6--6-6-6-6-6-6--6-6-6-6--5----|
A|--11--11-11-11-11-xxx-11--11-11-11-11-11-11--6--6-6-6-6-6-6--6-6-6-6--6----|
D|--11--11-11-11-11-xxx-11--11-11-11-11-11-11--6--6-6-6-6-6-6--6-6-6-6--5----|

Chorus:
e|----------------------------------------------------------------------------------|
B|----------------------------------------------------------------------------------|
G|----------------------------------------------------------------------------------|
D|--xx---3--3-3-3---3--3-3-3---3----10---11---11--11----11---11--11----1--1---1-----|
A|--xx---3--3-3-3---3--3-3-3---3----10---11---11--11----11---11--11----1--1---1-----|
D|--xx---3--3-3-3---3--3-3-3---3----10---11---11--11----11---11--11----1--1---1-----|

Bridge:
   GTR I
|e|------------------------------------------------------------------------------------------------------|
|B|------------------------------------------------------------------------------------------------------|
|G|------------------------------------------------------------------------------------------------------|
|D|--3----x-x-x--3--3----x-x-x-x-x--11--x-x-x--11--11--x-x-x-x-x--1--x-x-x--1--1--x-x-x-x-x--11--11-11-11|
|A|--3----x-x-x--3--3----x-x-x-x-x--11--x-x-x--11--11--x-x-x-x-x--1--x-x-x--1--1--x-x-x-x-x--11--11-11-11|
|D|--3----x-x-x--3--3----x-x-x-x-x--11--x-x-x--11--11--x-x-x-x-x--1--x-x-x--1--1--x-x-x-x-x--11--11-11-11|  
|  GTR II                                                  
|e|------------------------------------------------------------------------------|
|B|--6--6-6----------------------------------------------------------------------|
|G|---------5--5-5/6--6-6-5--5-5\3--3-3--5--5-5/6-6-6-6-6-6-6-6------------------|
|D|------------------------------------------------------------------------------|
|A|------------------------------------------------------------------------------|
|D|------------------------------------------------------------------------------|

e|----------------------------------------------------------------------------------|
B|----------------------------------------------------------------------------------|
G|----------------------------------------------------------------------------------|
D|--3--3-3-3-3--11--11-11-11-11--1--1-1-1-1----------10-10-10-10--9--9--9--9--------|
А|--3--3-3-3-3--11--11-11-11-11--1--1-1-1-1----------10-10-10-10--10-10-10-10-------|
D|--3--3-3-3-3--11--11-11-11-11--1--1-1-1-1----------10-10-10-10--9--9--9--9--------|
                                    

Verse:
   GTR I
|e|-------------------------------------------------------------|
|B|-------------------------------------------------------------|
|G|-------------------------------------------------------------|
|D|--6--6-6-6--6-6-6--6-6-6--5-5-3--3-3-3--3-3-3--3-3-3--3-3----|
|A|--6--6-6-6--6-6-6--6-6-6--6-6-3--3-3-3--3-3-3--3-3-3--3-3----|
|D|--6--6-6-6--6-6-6--6-6-6--5-5-3--3-3-3--3-3-3--3-3-3--3-3----|
|  GTR II
|e|---------------------------------------------------------------------------|
|B|--9----9-11--9-8-9----9-11--9-8-9----9-11--9-8-9----9-11--9-11~------------|
|G|-----8--------------8--------------8--------------8------------------------|
|D|---------------------------------------------------------------------------|
|A|---------------------------------------------------------------------------|
|D|---------------------------------------------------------------------------|
                                                                                                     
   GTR I
|e|-------------------------------------------------------------------------|
|B|-------------------------------------------------------------------------|
|G|-------------------------------------------------------------------------|
|D|--11--11-11-11--11-11-11--11-11-11--11-11-1--1-1-1--1-1-1--1-1-1--1-1----|
|A|--11--11-11-11--11-11-11--11-11-11--11-11-1--1-1-1--1-1-1--1-1-1--1-1----|
|D|--11--11-11-11--11-11-11--11-11-11--11-11-1--1-1-1--1-1-1--1-1-1--1-1----|
|  GTR II
|e|---------------------------------------------------------------------------|
|B|--13--11-13-14--13-11-13--11-13-14--13-11-9----9-11--9-8-9----9-8----------|
|G|---------------------------------------------8--------------8--------------|
|D|---------------------------------------------------------------------------|
|A|---------------------------------------------------------------------------|
|D|---------------------------------------------------------------------------|


Outro:
   GTR I
|e|-----------------------------------------|
|B|-----------------------------------------|
|G|-----------------------------------------|
|D|--3--------------------------------------|
|A|--3--------------------------------------|
|D|--3--------------------------------------|
|  GTR II                                                  
|e|-----------4-----------------------------|
|B|--------6-----6/8--6---------------------|
|G|-----5-----------------5~----------------|
|D|-----------------------------------------|
|A|-----------------------------------------|
|D|--3--------------------------------------|
|  GTR III  !!!                                                                            
|e|-----------------------------------------|
|B|--------------------------1--------------|
|G|-----------1-----0--------1--------------|
|D|--------3------3-----3-------------------|
|A|-----3-----------------------------------|
|D|--3--------------------------------------|

************************************

| /   slide up
| \   slide down
| h   hammer-on
| p   pull-off
| ~   vibrato
| +   harmonic
| x   Mute note
| b   Bend
| pb  Pre-bend
| br  Bend release
| pbr Pre-bend release
| brb Bend release bend

************************************

            
            
Suggest correction
Creating personal tab
Creating personal tab
You can edit any tab online and save it as your Personal.

You can edit, replace or remove any tab part or add personal notes – all changes will be seen only by you.

Personal tabs can be accessed anytime from any device, even offline.
Learn more »
Give kudos to tab author, rate the tab!
1 2 3 4 5
comments
print report bad tab
guest
You may want to rate the tab now too:
select rating
Wanna post a correction for this tab? Suggest correction