Oops, an error
Loading. Please wait.

Crawl tab

version 5
version 5

Whole song

Interactive

88 views 3 this week
no commentswrite comment
1 2 3 4 5
1 last vote to show rating
add to favorites
×
Save as Personal and add changes to this tab that will be seen only by you. Learn more ›
×
You can save this tab as Personal to edit and correct it or add notes. All changes will be seen only by you. Learn more »
launch autoscroll
font size
0
reset
how to read this tab
guitar tuner
edit
Autoscroll
slow
fast
+/-
esc
set tempo
stop
About this tab version
Not as significantly different from tab version four, this version adds a few more notes that were left out from that version that were heard from audio and watching live performance.. Was this info helpful? Yes No
Breaking Benjamin - Crawl 'Tab'
Tabbed by: SoarStaraptor

Based on audio and live performances. 
Some extra help from frans_georges.

Tuning: Drop Bb

[INTRO]: Both Guitars
C|-------------------------------------|----------------------------------x-------|
G|-------------------------------------|----------------------------------x-------|
D#|------------------------------------|----------------------------------x-------|
A#|------------------------------------|----------------------------------x-------|
F|--7-7-7--2-2-2--3-3-3--3-3-3-----3\2-|-7-7-7--2-2-2--3-3-3--3-3-3--5--5-x----5--|
A#|-7-7-7--2-2-2--3-3-3--------2-2-----|-7-7-7--2-2-2--3-3-3---------5--5-x----5--|

C|-------------------------------------|---------x------------x----------|
G|-------------------------------------|---------x------------x----------|
D#|------------------------------------|-5-5-5-5-x----5-5-5-5-x----------|
A#|------------------------------------|-5-5-5-5-x----5-5-5-5-x----X-2---|
F|--7-7-7--2-2-2--3-3-3--3-3-3-----3\2-|-3-3-3-3-x----3-3-3-3-x----X-2---|
A#|-7-7-7--2-2-2--3-3-3--------2-2-----|-3-3-3-3-x----3-3-3-3-x----X-2---|

[INTRO]: continued..
[Guitar 1 Rhythm]:
C|-------------------------------------|--------------------------------------|
G|-------------------------------------|--------------------------------------|
D#|------------------------------------|--------------------------------------|
A#|------------------------------------|--------------------------------------|
F|--7-7-7--2-2-2--3-3-3--3-3-3-----3-2-|-7-7-7--2-2-2--3-3-3--2-2-2--3-2------|
A#|-7-7-7--2-2-2--3-3-3--------2-2-----|-7-7-7--2-2-2--3-3-3--2-2-2------5-2--|

[Guitar 2 Lead]: STRUM w/ Wah
C|---------13-----12-----------10--12-|-15-----13-----12------------10--12---|
G|--10-----x------x------13----x---x--|-x------x------x------13-----x---x----|
D#|-x------10-----9------x-----7---9--|-12-----10-----9------x------7---9----|
A#|-7--------------------10-----------|----------------------10--------------|
F|------------------------------------|--------------------------------------|
A#|-----------------------------------|--------------------------------------|

[Guitar 1 Rhythm]:
C|-------------------------------------|---------x------------x----------|
G|-------------------------------------|---------x------------x----------|
D#|------------------------------------|-5-5-5-5-x----5-5-5-5-x----------|
A#|------------------------------------|-5-5-5-5-x----5-5-5-5-x----X-2---|
F|--7-7-7--2-2-2--3-3-3--3-3-3-----3\2-|-3-3-3-3-x----3-3-3-3-x----X-2---|
A#|-7-7-7--2-2-2--3-3-3--------2-2-----|-3-3-3-3-x----3-3-3-3-x----X-2---|

[Guitar 2 Lead]: STRUM w/ Wah
C|---------13-----12-----------10--12-|-------------x---------------x-----------|
G|--10-----x------x------13----x---x--|-13-13-13-13-x---13-13-13-13-x---13--12--|
D#|-x------10-----9------x-----7---9--|-x--x--x--x--x---x--x--x--x--x---x---x---|
A#|-7--------------------10-----------|-10-10-10-10-x---10-10-10-10-x---10--9---|
F|------------------------------------|-------------x---------------x-----------|
A#|-----------------------------------|-------------x---------------x-----------|

[VERSE]:
[Guitar 1 Rhythm]:
C|--------|
G|--------|
D#|-------|
A#|-7-----| gradually decrease
F|--7-----| guitar volume
A#|-7-----|

[Guitar 2 Lead]: (Clean)
C|----------------------0---------------|--------------------------------------|
G|--------------------------------------|--------------------------------------|
D#|-----12------12------------12-----12-|-----12-------12------12------12------|
A#|---10------10-----10------------10---|---10-------10------10------10--------| x2
F|--12------12-----12------12----12-----|-10-------10------10------10-----10---|
A#|-------------------------------------|--------------------------------------|
    A shadow of a man..

C|-----------------------0----------------|--------------------------------------------|
G|----------------------------------------|-----------------------------------0----0---|
D#|-----12------12--------------12-----12-|-----12-------12------12------12------------|
A#|---10------10------10-------------10---|---10-------10------10------10-------10-----|
F|--8-------8-------8---------8----8------|-10-------10------10------10----------------|
A#|---------------------------------------|--------------------------------------------|
    Holding on..

C|----------------------0---------------|-----------------------------------------|
G|--------------------------------------|-----------------------------------------|
D#|-----12------12------------12-----12-|-----12-------12------12------12-----12--|
A#|---10------10-----10------------10---|---10-------10------10------10-----10----| 
F|--12------12-----12------12----12-----|-10-------10------10------10-----10------|
A#|-------------------------------------|-----------------------------------------|
     Every now and then..

C|-----------------------0----------------|--------------------------------------------|
G|----------------------------------------|-----------------------------------0----0---|
D#|-----12------12--------------12-----12-|-----12-------12------12--------------------|
A#|---10------10------10-------------10---|---10-------10------10---------------10-----| 
F|--8-------8-------8---------8----8------|-10-------10------10------10----------------|
A#|---------------------------------------|--------------------------------------------|
    Holding on..

[PRE-CHORUS]:
[Guitar 1 Rhythm]:
C|---------------------------------------|---------------------------------------|
G|---------------------------------------|---------------------------------------|
D#|--------------------------------------|---------------------------------------|
A#|--------------------------------------|---------------------------------------|
F|--7-7-7-7-7-7-7-7-7-7-7-7--10-10-10-10-|-5-5-5-5-5-5-5-5-5-5-5-5--9--9--9--9---|
A#|-7-7-7-7-7-7-7-7-7-7-7-7--10-10-10-10-|-5-5-5-5-5-5-5-5-5-5-5-5--9--9--9--9---|
      * * * * * * * * * * *  *  *  *  *    * * * * * * * * * * * *  *  *  *  *
            I'm not like you..
            I'll make it through..

[Guitar 2 Lead]: Clean
C|-----------------------------------------------------------------0--------|
G|-------0------------------------------------0-----------------------------|
D#|--------------12----------------------------------12---------------------|
A#|----------10----------------------------------10-------------------------|
F|--12------------------------------------10--------------------------------|
A#|-------------------------------------------------------------------------|

[Guitar 1 Rhythm]:
C|----------------------------------|------------------------------|
G|----------------------------------|------------------------------|
D#|---------------------------------|------------------------------|
A#|---------------------------------|------------------------------|
F|--3-3-3-3-3-3-3-3-3-3-3-3-3-3-5-5-|-3-3-3-3-3-3-3-3--3-2---5-2---|
A#|-3-3-3-3-3-3-3-3-3-3-3-3-3-3-5-5-|-3-3-3-3-3-3-3-3--3-2---5-2---|
    * * * * * * * * * * * * * * * *   * * * * * * * *
            Your weak dead heart..
            Your hope is gone..

C|---------------------------------------------------|
G|------0--------------------------------0-----------|
D#|-------------12------------------------------12---|
A#|---------10-------------------------------10------|
F|--8--------------------------------8---------------|
A#|--------------------------------------------------|

[CHORUS]:
[Guitar 1 Rhythm]:
C|----------------------------------------|--------------------------------------|
G|----------------------------------------|--------------------------------------|
D#|---------------------------------------|--------------------------------------|
A#|-7-7-7-7-x--------------5-5-5-x--------|---3------3---3------3---------X--5---|
F|--7-7-7-7-x--------------5-5-5-x--------|---3------3---3------3---------X--5---|
A#|-7-7-7-7-x--------------5-5-5-x--------|---3------3---3------3---------X--5---|
            LIVE!                FIGHT!              Crawl back inside!

[Guitar 2 Lead]:
C|----------------------------------------------|----------------------------------------------|
G|----------------------------------------------|----------------------------------------------|
D#|------------12--------------------12---------|------------12--------------------12----------|
A#|----10-9-10----10-9-10----10-9-10----10-9-10-|----10-9-10----10-9-10----10-9-10----10-9-10--|
F|--12--------------------12--------------------|-12--------------------12---------------------|
A#|---------------------------------------------|----------------------------------------------|

[Guitar 1 Rhythm]:
C|----------------------------------------|--------------------------------------|
G|----------------------------------------|--------------------------------------|
D#|---------------------------------------|--------------------------------------|
A#|-7-7-7-7-x--------------5-5-5-x--------|---3------3---3------3---------5--5---|
F|--7-7-7-7-x--------------5-5-5-x--------|---3------3---3------3---------5--5---|
A#|-7-7-7-7-x--------------5-5-5-x--------|---3------3---3------3---------5--5---|
            SICK!                BLIND!

[Guitar 2 Lead]:
C|---------------------------------------------|----------------------------------------------|
G|---------------------------------------------|----------------------------------------------|
D#|-----------12--------------------12---------|------------12--------------------12----------|
A#|---10-9-10----10-9-10----10-9-10----10-9-10-|----10-9-10----10-9-10----10-9-10----10-9-10--|
F|-12--------------------12--------------------|-12--------------------12---------------------|
A#|--------------------------------------------|----------------------------------------------|

[Guitar 1 Rhythm]:
C|--------------------------------|--------------------------------|
G|--------------------------------|--------------------------------|
D#|-------------------------------|--------------------------------|
A#|-7--7--7--7--7-/10--10--10--10-|-5-----5---5---5\3------3/5-----| x2
F|--7--7--7--7--7-/10--10--10--10-|-5-----5---5---5\3------3/5-----|
A#|-7--7--7--7--7-/10--10--10--10-|-5-----5---5---5\3------3/5-----|
                I won't live..
                You pull me..

[Guitar 2 Lead]:
C|----------12------13------12-----|---------12------10------10--12--|
G|------13------13------13------13-|-----13------13------13----------|
D#|-14-----------------------------|-12------------------------------|
A#|--------------------------------|---------------------------------| x2
F|---------------------------------|---------------------------------|
A#|--------------------------------|---------------------------------|

[POST-CHORUS]:
[Guitar 1 Rhythm]:
C|-------------------------------------|----------------------------------x-------|
G|-------------------------------------|----------------------------------x-------|
D#|------------------------------------|----------------------------------x-------|
A#|------------------------------------|----------------------------------x-------|
F|--7-7-7--2-2-2--3-3-3--3-3-3-----3\2-|-7-7-7--2-2-2--3-3-3--3-3-3--5--5-x----5--|
A#|-7-7-7--2-2-2--3-3-3--------2-2-----|-7-7-7--2-2-2--3-3-3---------5--5-x----5--|


C|-------------------------------------|---------x------------x----------|
G|-------------------------------------|---------x------------x----------|
D#|------------------------------------|-5-5-5-5-x----5-5-5-5-x----------|
A#|------------------------------------|-5-5-5-5-x----5-5-5-5-x----X-2---|
F|--7-7-7--2-2-2--3-3-3--3-3-3-----3\2-|-3-3-3-3-x----3-3-3-3-x----X-2---|
A#|-7-7-7--2-2-2--3-3-3--------2-2-----|-3-3-3-3-x----3-3-3-3-x----X-2---|

[Guitar 2 Lead]: STRUM w/ Wah
C|---------13-----12-----------10--12-|-15-----13-----12------------10/12-x--12--|
G|--10-----x------x------13----x---x--|-x------x------x------13-----x-/x--x--x---|
D#|-x------10-----9------x-----7---9--|-12-----10-----9------x------7-/9--x--9---|
A#|-7--------------------10-----------|----------------------10-----------x------|
F|------------------------------------|-----------------------------------x------|
A#|-----------------------------------|-----------------------------------x------|

[Guitar 2 Lead]: STRUM w/ Wah
C|---------13-----12-----------10--12-|-------------x---------------x-----------|
G|--10-----x------x------13----x---x--|-13-13-13-13-x---13-13-13-13-x---13--12--|
D#|-x------10-----9------x-----7---9--|-x--x--x--x--x---x--x--x--x--x---x---x---|
A#|-7--------------------10-----------|-10-10-10-10-x---10-10-10-10-x---10--9---|
F|------------------------------------|-------------x---------------x-----------|
A#|-----------------------------------|-------------x---------------x-----------|


[VERSE 2]:
[Guitar 1 Rhythm]:
C|--------|
G|--------|
D#|-------|
A#|-7-----| gradually decrease
F|--7-----| guitar volume
A#|-7-----|

[Guitar 2 Lead]: (Clean)
C|----------------------0---------------|--------------------------------------|
G|--------------------------------------|--------------------------------------|
D#|-----12------12------------12-----12-|-----12-------12------12------12------|
A#|---10------10-----10------------10---|---10-------10------10------10--------| x2
F|--12------12-----12------12----12-----|-10-------10------10------10-----10---|
A#|-------------------------------------|--------------------------------------|
    Show me where it hurts..

C|-----------------------0----------------|--------------------------------------------|
G|----------------------------------------|-----------------------------------0----0---|
D#|-----12------12--------------12-----12-|-----12-------12------12------12------------|
A#|---10------10------10-------------10---|---10-------10------10------10-------10-----|
F|--8-------8-------8---------8----8------|-10-------10------10------10----------------|
A#|---------------------------------------|--------------------------------------------|
    Holding on..

C|----------------------0---------------|-----------------------------------------|
G|--------------------------------------|-----------------------------------------|
D#|-----12------12------------12-----12-|-----12-------12------12------12-----12--|
A#|---10------10-----10------------10---|---10-------10------10------10-----10----| 
F|--12------12-----12------12----12-----|-10-------10------10------10-----10------|
A#|-------------------------------------|-----------------------------------------|
     Dilated eyes..

C|-----------------------0----------------|--------------------------------------------|
G|----------------------------------------|-----------------------------------0----0---|
D#|-----12------12--------------12-----12-|-----12-------12------12--------------------|
A#|---10------10------10-------------10---|---10-------10------10---------------10-----| 
F|--8-------8-------8---------8----8------|-10-------10------10------10----------------|
A#|---------------------------------------|--------------------------------------------|
    Holding on..


[PRE-CHORUS 2]:
[Guitar 1 Rhythm]:
C|---------------------------------------|---------------------------------------|
G|---------------------------------------|---------------------------------------|
D#|--------------------------------------|---------------------------------------|
A#|--------------------------------------|---------------------------------------|
F|--7-7-7-7-7-7-7-7-7-7-7-7--10-10-10-10-|-5-5-5-5-5-5-5-5-5-5-5-5--9--9--9--9--|
A#|-7-7-7-7-7-7-7-7-7-7-7-7--10-10-10-10-|-5-5-5-5-5-5-5-5-5-5-5-5--9--9--9--9--|
      * * * * * * * * * * *  *  *  *  *    * * * * * * * * * * * *  *  *  *  *
            You're not like me..
            I'll break you in..

[Guitar 2 Lead]:
C|-----------------------------|-----------------------------------0--------|
G|-------0---------------------|--------------0-----------------------------|
D#|--------------12------------|----------------------12--------------------|
A#|----------10----------------|------------------10------------------------|
F|--12-------------------------|----------10--------------------------------|
A#|----------------------------|--------------------------------------------|

[Guitar 1 Rhythm]:
C|----------------------------------|------------------------------|
G|----------------------------------|------------------------------|
D#|---------------------------------|------------------------------|
A#|---------------------------------|------------------------------|
F|--3-3-3-3-3-3-3-3-3-3-3-3-3-3-5-5-|-3-3-3-3-3-3-3-3--3-2---5-2---|
A#|-3-3-3-3-3-3-3-3-3-3-3-3-3-3-5-5-|-3-3-3-3-3-3-3-3--3-2---5-2---|
    * * * * * * * * * * * * * * * *   * * * * * * * *
            Your weak dead heart..
            Your hope is gone..

C|---------------------------------------------------|
G|------0--------------------------------0-----------|
D#|-------------12------------------------------12---|
A#|---------10-------------------------------10------|
F|--8--------------------------------8---------------|
A#|--------------------------------------------------|

[CHORUS 2]:
[Guitar 1 Rhythm]:
C|--------------------------------------|----------------------------------------|
G|--------------------------------------|----------------------------------------|
D#|-------------------------------------|----------------------------------------|
A#|-7-7-7-7-x--------------5-5-5-x------|-----3------3---3------3---------X--5---|
F|--7-7-7-7-x--------------5-5-5-x------|-----3------3---3------3---------X--5---|
A#|-7-7-7-7-x--------------5-5-5-x------|-----3------3---3------3---------X--5---|
            LIVE!                FIGHT!              Crawl back inside!

[Guitar 2 Lead]:
C|----------------------------------------------|----------------------------------------------|
G|----------------------------------------------|----------------------------------------------|
D#|------------12--------------------12---------|------------12--------------------12----------|
A#|----10-9-10----10-9-10----10-9-10----10-9-10-|----10-9-10----10-9-10----10-9-10----10-9-10--|
F|--12--------------------12--------------------|-12--------------------12---------------------|
A#|---------------------------------------------|----------------------------------------------|

[Guitar 1 Rhythm]:
C|--------------------------------------|----------------------------------------|
G|--------------------------------------|----------------------------------------|
D#|-------------------------------------|----------------------------------------|
A#|-7-7-7-7-x--------------5-5-5-x------|-----3------3---3------3---------5--5---|
F|--7-7-7-7-x--------------5-5-5-x------|-----3------3---3------3---------5--5---|
A#|-7-7-7-7-x--------------5-5-5-x------|-----3------3---3------3---------5--5---|
            SICK!                BLIND!

[Guitar 2 Lead]:
C|----------------------------------------------|----------------------------------------------|
G|----------------------------------------------|----------------------------------------------|
D#|------------12--------------------12---------|------------12--------------------12----------|
A#|----10-9-10----10-9-10----10-9-10----10-9-10-|----10-9-10----10-9-10----10-9-10----10-9-10--|
F|--12--------------------12--------------------|-12--------------------12---------------------|
A#|---------------------------------------------|----------------------------------------------|

[Guitar 1 Rhythm]:
C|--------------------------------|--------------------------------|
G|--------------------------------|--------------------------------|
D#|-------------------------------|--------------------------------|
A#|-7--7--7--7--7-/10--10--10--10-|-5-----5---5---5\3------3/5-----| x2
F|--7--7--7--7--7-/10--10--10--10-|-5-----5---5---5\3------3/5-----|
A#|-7--7--7--7--7-/10--10--10--10-|-5-----5---5---5\3------3/5-----|
                I won't live..
                You pull me..

[Guitar 2 Lead]: 
C|----------12------13------12-----|---------12------10------10--12--|
G|------13------13------13------13-|-----13------13------13----------|
D#|-14-----------------------------|-12------------------------------|
A#|--------------------------------|---------------------------------| x2
F|---------------------------------|---------------------------------|
A#|--------------------------------|---------------------------------|

[BRIDGE]:
[Guitar 1 Rhythm]:
C|--------------|---------------------|
G|--------------|---------------------|
D#|-------------|---------------------|
A#|-7--7--7--7--|---------------------|
F|--7--7--7--7--|---------------------|
A#|-7--7--7--7--|--10h9p0-7h9p0-7p6---|


[Guitar 2 Lead]:
C|------------------------------------|
G|--10---10---10---10-----------------|
D#|-x----x----x----x------------------|
A#|-7----7----7----7------------------|
F|------------------------------------|
A#|-----------------------------------|

[Both Guitars]:
C|---------x---------0-|---------x------------------|
G|---------x---------0-|---------x------------------|
D#|--------x-----------|---------x------------------|
A#|-0-2----x--3-2------|--2-3----x--5-3-------------|
F|--0-2----x--3-2------|--2-3----x--5-3-------------|
A#|-0-2----x--3-2------|--2-3----x--5-3----7h9-7p6--|
           I'm becoming a monster!

C|---------x---------0-|---------x------------------|
G|---------x---------0-|---------x------------------|
D#|--------x-----------|---------x------------------|
A#|-0-2----x--3-2------|--2-3----x--5-3-------------|
F|--0-2----x--3-2------|--2-3----x--5-3-------------|
A#|-0-2----x--3-2------|--2-3----x--5-3----7p6-7h9--|
              After it all..!

[Guitar 1 Rhythm]:
C|---------x---------0-|---------x------------------|
G|---------x---------0-|---------x------------------|
D#|--------x-----------|---------x------------------|
A#|-0-2----x--3-2------|--2-3----x--5-3-------------|
F|--0-2----x--3-2------|--2-3----x--5-3-------------|
A#|-0-2----x--3-2------|--2-3----x--5-3----7h9-7p6--|
                Falling forever..!

[Guitar 2 Lead] STRUM
C|------------------------|----------------------------|
G|--12----------10-----9--|--13-----12-15--13--12--13--|
D#|-x-----------x------x--|--x------x--x---x---x---x---|
A#|-9-----------7------6--|--10-----9--12--10--9---10--|
F|------------------------|----------------------------|
A#|-----------------------|----------------------------|

C|---------x---------0--|--------x--------------------------------------|
G|---------x---------0--|--------x--------------------------------------|
D#|--------x------------|--------x--------------------------------------|
A#|-0-2----x--3-2-------|-2-3----x--5-3-------X-5-----7-----------X-5---|
F|--0-2----x--3-2-------|-2-3----x--5-3-------X-5-----7-----------X-5---|
A#|-0-2----x--3-2-------|-2-3----x--5-3-------X-5-----7-----------X-5---|
                  Brought you to life..!

[Guitar 2 Lead] STRUM
C|------------------------|------------------------------0-----------|
G|--12----------10-----9--|--13-------8---------12----------0--------|
D#|-x-----------x------x--|--x--------x---------x--------------5-----| last four notes
A#|-9-----------7------6--|--10-------5---------9-----7--------------| CLEAN
F|------------------------|------------------------------------------|
A#|-----------------------|------------------------------------------|

[CHORUS 3]:
[Guitar 1 Rhythm]:
C|--------------------------------------|----------------------------------------|
G|--------------------------------------|----------------------------------------|
D#|-------------------------------------|----------------------------------------|
A#|-7-7-7-7-x--------------5-5-5-x------|-----3------3---3------3---------X--5---|
F|--7-7-7-7-x--------------5-5-5-x------|-----3------3---3------3---------X--5---|
A#|-7-7-7-7-x--------------5-5-5-x------|-----3------3---3------3---------X--5---|
            LIVE!                FIGHT!              Crawl back inside!

[Guitar 2 Lead]:
C|------------------------------------------------------|---------------------------------|
G|------------------------12+-12+---------------12+-12+-|-10--10--12--12--15--15--13--15--|
D#|---------------12+-12+---------12+-12+---------------|-x---x---x---x---x---x---x---x---|
A#|-7-7-7-7-7+-7+-------------------------7+-7+---------|-7---7---9---9---12--12--10--12--|
F|--7-7-7-7---------------------------------------------|---------------------------------|
A#|-7-7-7-7---------------------------------------------|---------------------------------|

[Guitar 1 Rhythm]:
C|--------------------------------------|----------------------------------------|
G|--------------------------------------|----------------------------------------|
D#|-------------------------------------|----------------------------------------|
A#|-7-7-7-7-x--------------5-5-5-x------|-----3------3---3------3---------5--5---|
F|--7-7-7-7-x--------------5-5-5-x------|-----3------3---3------3---------5--5---|
A#|-7-7-7-7-x--------------5-5-5-x------|-----3------3---3------3---------5--5---|
            SICK!                BLIND!

[Guitar 2 Lead]:
C|------------------------------------------------------|---------------------------------|
G|------------------------12+-12+---------------12+-12+-|-10--10--12--12--13--13--12--12--|
D#|---------------12+-12+---------12+-12+---------------|-x---x---x---x---x---x---x---x---|
A#|-7-7-7-7-7+-7+-------------------------7+-7+---------|-7---7---9---9---10--10--9---9---|
F|--7-7-7-7---------------------------------------------|---------------------------------|
A#|-7-7-7-7---------------------------------------------|---------------------------------|

[Guitar 1 Rhythm]:
C|--------------------------------|--------------------------------|
G|--------------------------------|--------------------------------|
D#|-------------------------------|--------------------------------|
A#|-7--7--7--7--7-/10--10--10--10-|-5-----5---5---5\3------3/5-----| x2
F|--7--7--7--7--7-/10--10--10--10-|-5-----5---5---5\3------3/5-----|
A#|-7--7--7--7--7-/10--10--10--10-|-5-----5---5---5\3------3/5-----|
                I won't live..
                You pull me..

[Guitar 2 Lead]:
C|----------12------13------12-----|---------12------10------10--12--|
G|------13------13------13------13-|-----13------13------13----------|
D#|-14-----------------------------|-12------------------------------|
A#|--------------------------------|---------------------------------| x2
F|---------------------------------|---------------------------------|
A#|--------------------------------|---------------------------------|

[OUTRO]: Both Guitars
C|----------------------|----------------------------|
G|----------------------|----------------------------|
D#|---------------------|----------------------------|
A#|-7----2--3--2----X-X-|-X-7----2--3--2-------------|
F|--7----2--3--2----X-X-|-X-7----2--3--2----3-2------|
A#|-7----2--3--2----X-X-|-X-7----2--3--2--------5-2--|


C|---------------------------|--------------------------|
G|---------------------------|--------------------------|
D#|--------------------------|--------------------------|
A#|-7----2--3--2----X--X---X-|-7----2--3--2-------------|
F|--7----2--3--2----X--X---X-|-7----2--3--2----3-2------|
A#|-7----2--3--2----X--X---X-|-7----2--3--2--------5-2--|


C|--------------x----|------------x----|
G|--------------x----|------------x----|
D#|-2--2--2--2--x----|---2--2--2--x----|
A#|-2--2--2--2--x----|---2--2--2--x----|
F|--0--0--0--0--x----|---0--0--0--x----|
A#|-------------x----|------------x----|


That's it!


Key:
/ = slide up
\ = slide down
h = hammer on
p = pull off
x = stop note
X = dead note
* = palm mute





Suggest correction
Creating personal tab
Creating personal tab
You can edit any tab online and save it as your Personal.

You can edit, replace or remove any tab part or add personal notes – all changes will be seen only by you.

Personal tabs can be accessed anytime from any device, even offline.
Learn more »
Give kudos to tab author, rate the tab!
1 2 3 4 5
comments
print report bad tab
guest
You may want to rate the tab now too:
select rating
Wanna post a correction for this tab? Suggest correction