Oops, an error
Loading. Please wait.

Dance With The Devil tab

version 2
version 2

Whole song

49,801 views 18 this week
19 commentsread comments
1 2 3 4 5
x 27
add to favorites
×
Save as Personal and add changes to this tab that will be seen only by you. Learn more ›
×
You can save this tab as Personal to edit and correct it or add notes. All changes will be seen only by you. Learn more »
launch autoscroll
font size
0
reset
how to read this tab
guitar tuner
edit
Autoscroll
slow
fast
+/-
esc
set tempo
stop
Breaking Benjamin           UPDATE 2/23/10 UPDATE
Dance With The Devil
Tabbed by U B the band
Tuning Bb F Bb Eb G C

Legend
/-slide up                   ()-optional                b-bend
\-slide down                 h-hammer on
p-pull off                   r-return bend

I know there are only 2 guitar players in Breaking Benjamin but for this
song they (Ben or Aaron) played the guitar 3 parts for some fill-ins in
the studio. So I added guitar 3 and the piano parts, I hope you like it.

Intro: Guitar 1 (Ben)
 C|-------------------------------------------------------------------|
 G|-------------------------------------------------------------------|  
Eb|----------0--0-----0-----0-----0-----------0--0-----0-----0-----0--| 
Bb|--3/5--5--------5-----5-----5------3/5--5--------5-----5-----5-----| 
 F|-------------------------------------------------------------------|
Bb|-------------------------------------------------------------------|

 C|-------------------------------------------------------------------|
 G|-------------------------------------------------------------------| 
Eb|----------7p5------------5-----------8p7-------8\7--10p7-----------| 
Bb|--3/5--5-------5---7--7-----/8--7h8-------10-----------------------| 
 F|-------------------------------------------------------------------|
Bb|-------------------------------------------------------------------|

 C|-------------------------------------------------------------------|
 G|-------------------------------------------------------------------|  
Eb|-----8----10---------8----10---------8----10--------8----8----8----| 
Bb|--12---12----12---12---12----12---12---12----12---12---12---12-----| 
 F|-------------------------------------------------------------------|
Bb|-------------------------------------------------------------------|

Guitars 1 and 3:
 C|-------------------------------------------------------------------|
 G|-------------------------------------------------------------------|
Eb|-------------------------------------------------------------------|
Bb|--5---5---5-p3--5-p3--8-p5--3-h6---5---5---5-p3--5-p3--8-p5--3-h6--|
 F|--5---5---5-p3--5-p3--8-p5--3-h6---5---5---5-p3--5-p3--8-p5--3-h6--|
Bb|--5---5---5-p3--5-p3--8-p5--3-h6---5---5---5-p3--5-p3--8-p5--3-h6--|

 C|-------------------------------------------------------------------|
 G|-------------------------------------------------------------------|
Eb|---------------------------------------------------------------7---|
Bb|--5---5---5-p3--5-p3--8-p5--3-h6---5---5---5-p3--8-8-8--6-6-6--5---|
 F|--5---5---5-p3--5-p3--8-p5--3-h6---5---5---5-p3--8-8-8--6-6-6--5---|
Bb|--5---5---5-p3--5-p3--8-p5--3-h6---5---5---5-p3--8-8-8--6-6-6--5---|
                                        guitar 3 only (let ring)__^

Verse 1: Guitar 1 (Ben) *Play verse 4 times*
 C|-------------------------------------------------------------------|
 G|-------------------------------------------------------------------| 
Eb|----------7p5------------5-----------8p7-------8\7--10p7-----------| 
Bb|--3/5--5-------5---7--7-----/8--7h8-------10-----------------------| 
 F|-------------------------------------------------------------------|
Bb|-------------------------------------------------------------------|
                                                                      |
Verse 1: Guitar 2 (Aaron)                                             |
 C|----------10p8-----------8----------11p10-----11\10-13p10----------|
 G|-------8--------------10----/11--11-------13-----------------------|  
Eb|-------------------------------------------------------------------| 
Bb|-------------------------------------------------------------------| 
 F|-------------------------------------------------------------------|
Bb|-------------------------------------------------------------------|

Verse 1 cont. (Ben)
 C|-------------------------------------------------------------------|
 G|-------------------------------------------------------------------|  
Eb|-----8----10---------8----10---------8----10--------8----8----8----| 
Bb|--12---12----12---12---12----12---12---12----12---12---12---12-----| 
 F|-------------------------------------------------------------------|
Bb|-------------------------------------------------------------------|
                                                                      |
Verse 1 cont. (Aaron)                                                 |
 C|-----11---13---------11---13---------11---13--------11---11---11---|
 G|--15---15----15---15---15----15---15---15----15---15---15---15-----|
Eb|-------------------------------------------------------------------|
Bb|-------------------------------------------------------------------|
 F|-------------------------------------------------------------------|
Bb|-------------------------------------------------------------------|

Chorus Guitar 1 (Ben) PLAY 4 TIMES
 C|-------------------------------------------------------------------|
 G|-------------------------------------------------------------------|
Eb|-------------------------------------------------------------------|
Bb|--5---5--5--5--5--3---3--3--3--3--1---1--1--1--1---1---1--1--1--1--| 
 F|--5---5--5--5--5--3---3--3--3--3--1---1--1--1--1---1---1--1--1--1--|
Bb|--5---5--5--5--5--3---3--3--3--3--1---1--1--1--1---1---1--1--1--1--|
                                                                      |
Chorus Guitar 2 (Aaron) *play 2 times*                                |
 C|-------------------------------------------------------------------|
 G|-------15---------18--------15----16----15--------18-------15------|
Eb|--15--------17---------17--------------------17--------17----------|
Bb|-------------------------------------------------------------------|
 F|-------------------------------------------------------------------|
Bb|-------------------------------------------------------------------|
                                                                      |
Chorus Guitar 2 cont.                                                 |
 C|-------------------------------------------------------------------|
 G|-------15---------18--------15----16----15--------18---16--15------|
Eb|--15--------17---------17--------------------17--------------------|
Bb|-------------------------------------------------------------------|
 F|-------------------------------------------------------------------|
Bb|-------------------------------------------------------------------|
                                                                      |
Chorus Guitar 3 (unknown) PLAY 4 TIMES                                |
 C|-------------------------------------------------------------------|
 G|-------------------------------------------------------------------|
Eb|--7---7--7--7--7--5---5--5--5--5--8---8--8--8--8---8---8--8--8--8--|
Bb|--5---5--5--5--5--3---3--3--3--3--8---8--8--8--8---8---8--8--8--8--| 
 F|--5---5--5--5--5--3---3--3--3--3--6---6--6--6--6---6---6--6--6--6--|
Bb|--5---5--5--5--5--3---3--3--3--3-----------------------------------|

Post Chorus Guitars 1 and 3:
 C|-------------------------------------------------------------------|
 G|-------------------------------------------------------------------|
Eb|---------------------------------------------------------------7---|
Bb|--5---5---5-p3--5-p3--8-p5--3-h6---5---5---5-p3--8-8-8--6-6-6--5---|
 F|--5---5---5-p3--5-p3--8-p5--3-h6---5---5---5-p3--8-8-8--6-6-6--5---|
Bb|--5---5---5-p3--5-p3--8-p5--3-h6---5---5---5-p3--8-8-8--6-6-6--5---|
                                        guitar 3 only (let ring)__^

Verse 2: Guitar 1 (Ben) *Play verse 4 times*
 C|-------------------------------------------------------------------|
 G|-------------------------------------------------------------------| 
Eb|----------7p5------------5-----------8p7-------8\7--10p7-----------| 
Bb|--3/5--5-------5---7--7-----/8--7h8-------10-----------------------| 
 F|-------------------------------------------------------------------|
Bb|-------------------------------------------------------------------|
                                                                      |
Verse 1: Guitar 2 (Aaron)                                             |
 C|----------10p8-----------8----------11p10-----11\10-13p10----------|
 G|-------8--------------10----/11--11-------13-----------------------|  
Eb|-------------------------------------------------------------------| 
Bb|-------------------------------------------------------------------| 
 F|-------------------------------------------------------------------|
Bb|-------------------------------------------------------------------|

Verse 1 cont. (Ben)
 C|-------------------------------------------------------------------|
 G|-------------------------------------------------------------------|  
Eb|-----8----10---------8----10---------8----10--------8----8----8----| 
Bb|--12---12----12---12---12----12---12---12----12---12---12---12-----| 
 F|-------------------------------------------------------------------|
Bb|-------------------------------------------------------------------|
                                                                      |
Verse 1 cont. (Aaron)                                                 |
 C|-----11---13---------11---13---------11---13--------11---11---11---|
 G|--15---15----15---15---15----15---15---15----15---15---15---15-----|
Eb|-------------------------------------------------------------------|
Bb|-------------------------------------------------------------------|
 F|-------------------------------------------------------------------|
Bb|-------------------------------------------------------------------|

Chorus Guitar 1 (Ben) PLAY 3 TIMES
 C|-------------------------------------------------------------------|
 G|-------------------------------------------------------------------|
Eb|-------------------------------------------------------------------|
Bb|--5---5--5--5--5--3---3--3--3--3--1---1--1--1--1---1---1--1--1--1--| 
 F|--5---5--5--5--5--3---3--3--3--3--1---1--1--1--1---1---1--1--1--1--|
Bb|--5---5--5--5--5--3---3--3--3--3--1---1--1--1--1---1---1--1--1--1--|
                                                                      |
Chorus Guitar 2 (Aaron)                                               |
 C|-------------------------------------------------------------------|
 G|-------15---------18--------15----16----15--------18-------15------|
Eb|--15--------17---------17--------------------17--------17----------|
Bb|-------------------------------------------------------------------|
 F|-------------------------------------------------------------------|
Bb|-------------------------------------------------------------------|
                                                                      |
Chorus Guitar 2 cont.                                                 |
 C|-------------------------------------------------------------------|
 G|-------15---------18--------15----16----15--------18---16--15------|
Eb|--15--------17---------17--------------------17--------------------|
Bb|-------------------------------------------------------------------|
 F|-------------------------------------------------------------------|
Bb|-------------------------------------------------------------------|
                                                                      |
Chorus Guitar 2 (Aaron)                                               |
 C|-------------------------------------------------------------------|
 G|-------15---------18--------15----16----15--------18-------15------|
Eb|--15--------17---------17--------------------17--------17----------|
Bb|-------------------------------------------------------------------|
 F|-------------------------------------------------------------------|
Bb|-------------------------------------------------------------------|
                                                                      |
Chorus Guitar 3 (unknown) PLAY 3 TIMES                                |
 C|-------------------------------------------------------------------|
 G|-------------------------------------------------------------------|
Eb|--7---7--7--7--7--5---5--5--5--5--8---8--8--8--8---8---8--8--8--8--|
Bb|--5---5--5--5--5--3---3--3--3--3--8---8--8--8--8---8---8--8--8--8--| 
 F|--5---5--5--5--5--3---3--3--3--3--6---6--6--6--6---6---6--6--6--6--|
Bb|--5---5--5--5--5--3---3--3--3--3-----------------------------------|

Guitar 1 on 4th time:
 C|-------------------------------------------------------------------|
 G|-------------------------------------------------------------------|
Eb|-------------------------------------------------------------------|
Bb|--5---5--5--5--5--3---3--3--3--3--1---1--1--1--1-------------------| 
 F|--5---5--5--5--5--3---3--3--3--3--1---1--1--1--1-------------------|
Bb|--5---5--5--5--5--3---3--3--3--3--1---1--1--1--1-------------------|
                                                                      |
Chorus Guitar 2 cont.                                                 |
 C|-------------------------------------------------------------------|
 G|-------15---------18--------15----16----15-------------------------|
Eb|--15--------17---------17--------------------17--------------------|
Bb|-------------------------------------------------------------------|
 F|-------------------------------------------------------------------|
Bb|-------------------------------------------------------------------|
                                                                      |
Guitar 3 on 4th time:                                                 |
 C|-------------------------------------------------------------------|
 G|-------------------------------------------------------------------|
Eb|--7---7--7--7--7--5---5--5--5--5--8---8--8--8--8-------------------|
Bb|--5---5--5--5--5--3---3--3--3--3--8---8--8--8--8-------------------| 
 F|--5---5--5--5--5--3---3--3--3--3--6---6--6--6--6-------------------|
Bb|--5---5--5--5--5--3---3--3--3--3-----------------------------------|

Bridge Guitars 1 and 2
 C|-------------------------------------------------------------x-x-x-|
 G|------------------------------------------------------3-3-3--3-3-3-|
Eb|--2h3p2p0-----------------------2h3p2p0---------------3-3-3--3-3-3-|
Bb|-----------0--0--0--0---1--1-1-----------0--0--0--0---1-1-1--3-3-3-|
 F|-----------0--0--0--0---1--1-1-----------0--0--0--0---1-1-1--3-3-3-|
Bb|-----------0--0--0--0---1--1-1-----------0--0--0--0---1-1-1--3-3-3-|
                                                        |_____________| 
                                                         Guitar 2 only
Bridge Guitars 1
 C|-------------------------------------------------------------------|
 G|-----------------------------------------------------15------------|
Eb|------------------------------------------------------x------------|
Bb|--------------------------------------------------12-12------------| 
 F|-------------------------------------------------------------------|
Bb|-------------------------------------------------------------------|
                                                         ^--tremolo pick 

Guitar 2 during solo:
 C|--------------------------------------------------------------------|
 G|--------------------------------------------------------------------|
Eb|--------------------------------------------------------------------|
Bb|--5----3----1-------1----3----5-------5----8----1-------1----3----5-|
 F|--5----3----1-------1----3----5-------5----8----1-------1----3----5-|
Bb|--5----3----1-------1----3----5-------5----8----1-------1----3----5-|

Solo Guitar 1: (Ben)
 C|--17-17h18--18-17-15-15h17-15\13h15-15-15-15\------18-18-18--17-17-17|
 G|---------------------------------------------15h18-15-15-15--15-15-15|
Eb|---------------------------------------------------------------------|
Bb|---------------------------------------------------------------------| 
 F|---------------------------------------------------------------------|
Bb|---------------------------------------------------------------------|

 C|---------------------18-18-18-22-18-22-22-22-22-22-22-22-22-22-22-22\|
 G|--15b(16-16)15-15-15-15----------------------------------------------|
Eb|---x---x--x--x--x--x--x----------------------------------------------|
Bb|--12b(13-13)12-12-12-12----------------------------------------------|
 F|---------------------------------------------------------------------|
Bb|---------------------------------------------------------------------|

Chorus Guitar 1 (Ben)
 C|-------------------------------------------------------------------|
 G|-------------------------------------------------------------------|
Eb|-------------------------------------------------------------------|
Bb|--5---5--5--5--5--3---3--3--3--3--1---1--1--1--1---1---1--1--1--1--| 
 F|--5---5--5--5--5--3---3--3--3--3--1---1--1--1--1---1---1--1--1--1--|
Bb|--5---5--5--5--5--3---3--3--3--3--1---1--1--1--1---1---1--1--1--1--|
                                                                      |
Chorus Guitar 2 (Aaron)                                               |
 C|-------------------------------------------------------------------|
 G|-------15---------18--------15----16----15--------18-------15------|
Eb|--15--------17---------17--------------------17--------17----------|
Bb|-------------------------------------------------------------------|
 F|-------------------------------------------------------------------|
Bb|-------------------------------------------------------------------|
                                                                      |
Chorus Guitar 2 cont.                                                 |
 C|-------------------------------------------------------------------|
 G|-------15---------18--------15----16----15--------18---16--15------|
Eb|--15--------17---------17--------------------17--------------------|
Bb|-------------------------------------------------------------------|
 F|-------------------------------------------------------------------|
Bb|-------------------------------------------------------------------|
                                                                      |
Chorus Guitar 2 (Aaron)                                               |
 C|-------------------------------------------------------------------|
 G|-------15---------18--------15----16----15--------18-------15------|
Eb|--15--------17---------17--------------------17--------17----------|
Bb|-------------------------------------------------------------------|
 F|-------------------------------------------------------------------|
Bb|-------------------------------------------------------------------|
                                                                      |
Chorus Guitar 3 (unknown) PLAY 3 TIMES                                |
 C|-------------------------------------------------------------------|
 G|-------------------------------------------------------------------|
Eb|--7---7--7--7--7--5---5--5--5--5--8---8--8--8--8---8---8--8--8--8--|
Bb|--5---5--5--5--5--3---3--3--3--3--8---8--8--8--8---8---8--8--8--8--| 
 F|--5---5--5--5--5--3---3--3--3--3--6---6--6--6--6---6---6--6--6--6--|
Bb|--5---5--5--5--5--3---3--3--3--3-----------------------------------|

Guitar 1 on 4th time:
 C|-------------------------------------------------------------------|
 G|-------------------------------------------------------------------|
Eb|-------------------------------------------------------------------|
Bb|--5---5--5--5--5--3---3--3--3--3--1---1--1--1--1-------------------| 
 F|--5---5--5--5--5--3---3--3--3--3--1---1--1--1--1-------------------|
Bb|--5---5--5--5--5--3---3--3--3--3--1---1--1--1--1-------------------|
                                                                      |
Chorus Guitar 2 cont.                                                 |
 C|-------------------------------------------------------------------|
 G|-------15---------18--------15----16----15-------------------------|
Eb|--15--------17---------17--------------------17--------------------|
Bb|-------------------------------------------------------------------|
 F|-------------------------------------------------------------------|
Bb|-------------------------------------------------------------------|
                                                                      |
Guitar 3 on 4th time:                                                 |
 C|-------------------------------------------------------------------|
 G|-------------------------------------------------------------------|
Eb|--7---7--7--7--7--5---5--5--5--5--8---8--8--8--8-------------------|
Bb|--5---5--5--5--5--3---3--3--3--3--8---8--8--8--8-------------------| 
 F|--5---5--5--5--5--3---3--3--3--3--6---6--6--6--6-------------------|
Bb|--5---5--5--5--5--3---3--3--3--3-----------------------------------|

Outro Guitars 1 and 2
 C|-------------------------------------------------------------------|
 G|-------------------------------------------------------------------|
Eb|--2h3p2p0-----------------------2h3p2p0----------------------------|
Bb|-----------0--0--0--0---1--1-1-----------0--0--0--0----------------|
 F|-----------0--0--0--0---1--1-1-----------0--0--0--0----------------|
Bb|-----------0--0--0--0---1--1-1-----------0--0--0--0----------------|

Outro cont. Guitar 1
 C|-------------------------------------------------------------------|
 G|-------------------------------------------------------------------|
Eb|-------------------------------------------------------------------|
Bb|--x-1--1----x-3--3------5------------------------------------------|
 F|--x-1--1----x-3--3------5------------------------------------------|
Bb|--x-1--1----x-3--3------5------------------------------------------|
                                                                      |
Outro Guitar 2/Piano                                                  |
 C|-------------------------------------------------------------------|
 G|-------------------------------15--16--15------------15--16--15----|
Eb|----------------------------15----(19)----15------15----(19)----15-|
Bb|------------------------17--------------------17-------------------|
 F|-------------------------------------------------------------------|
Bb|-------------------------------------------------------------------|

Outro cont. Guitar 1
 C|-------------------------------------------------------------------|
 G|-------------------------------------------------------------------|
Eb|-------------------------------------------------------------------|
Bb|-------------------------------------------------------------------|
 F|--1----------------------------------------------------------------|
Bb|--1----------------------------------------------------------------|
                                                                      |
Outro cont. Guitar 2/Piano                                            |
 C|-------------------------------------------------------------------|
 G|---------15--16--15------------15--16--15--------------------------|
Eb|------15----(19)----15------15----(19)-----15----------------------|
Bb|--17--------------------17-----------------------------------------|
 F|-------------------------------------------------------------------|
Bb|-------------------------------------------------------------------|

Outro cont. Guitar 1
 C|-------------------------------------------------------------------|
 G|-------------------------------------------------------------------|
Eb|-------------------------------------------------------------------|
Bb|-------------------------------------------------------------------|
 F|--5----------------------------------------------------------------|
Bb|--5----------------------------------------------------------------|
                                                                      |
Outro cont. Guitar 2/Piano                                            |
 C|-------------------------------------------------------------------|
 G|---------15--16--15------------15--16--15--------------------------|
Eb|------15----(19)----15------15----(19)-----15----------------------|
Bb|--17--------------------17-----------------------------------------|
 F|-------------------------------------------------------------------|
Bb|-------------------------------------------------------------------|

Outro cont. Guitar 1
 C|-------------------------------------------------------------------|
 G|-------------------------------------------------------------------|
Eb|-------------------------------------------------------------------|
Bb|-------------------------------------------------------------------|
 F|--1----------------------------------------------------------------|
Bb|--1----------------------------------------------------------------|

Outro cont. Guitar 2/Piano
 C|-------------------------------------------------------------------|
 G|-------------------------------------------------------------------|
Eb|-------------------------------------------------------------------|
Bb|--17------15------13--------12-------------------------------------|
 F|-------------------------------------------------------------------|
Bb|-------------------------------------------------------------------|

Finished!


            
            
Suggest correction
Creating personal tab
Creating personal tab
You can edit any tab online and save it as your Personal.

You can edit, replace or remove any tab part or add personal notes – all changes will be seen only by you.

Personal tabs can be accessed anytime from any device, even offline.
Learn more »
comments
print report bad tab
19 comments total. Showing first comments.
+1 reply
b_ball_girl1021 104 Jun 04, 2007 10:44 AM

Awsome!!!!!!!!!!!!!

+1 reply
v-bend 10 Jun 04, 2007 11:31 AM

pretty good tab your intro is better then the others

+1 reply
heaven.help.you 93 Jun 14, 2007 12:50 PM

nice, i really like this. Its perfect. lol. Thanks to this tab, i made my own acoustic version of this song lol

guest
You may want to rate the tab now too:
select rating
Wanna post a correction for this tab? Suggest correction