Oops, an error
Loading. Please wait.

Dear Agony Tab

version 1
version 1

Album

Whole song

Interactive

14,953 views 36 this week
3 commentsread comments
1 2 3 4 5
x 11
add to favorites
launch autoscroll
font size
0
reset
how to read this tab
guitar tuner
×
Best way to learn
"Dear Agony"
Autoscroll
slow
fast
+/-
esc
set tempo
stop
Author
Difficulty
  follow
intermediate
Artist: Breaking Benjamin
Album: dear agony
Song:
1. fade away
2. I will not bow 
3. Crawl
4. Give me a sign
5. Hopeless
6. What Lies Beneath
7. Anthem of the angels
8. Lights out
9. Dear agony
10. Into the nothing
11. Without you

1. Song: Fade away

Tuning Bb F Bb Eb G C

[Intro]
(Guitar 2)
(Clean)
 C|------------------------------------------------------------------------------------|
 G|------------------------------------------------------------------------------------|
Eb|--------------2---------0-----2----3--------3---------3/5------3----2---------------|
Bb|---------4---------4-----------------------------0----------------------------------|
 F|------------------------------------------------------------------------------------|
Bb|--0-0----------------------0-----------0--------------------0-----------------------|

[Intro]
(Guitar 2)
(Clean)
 C|------------------------------------------------------------------------------------|
 G|----------------------------------------------------5----6--------------------------|
Eb|---------2---------0------3/5----3--------3-----------------------------------------|
Bb|--------------4--------------------------------0------------------------------------|
 F|------------------------------------------------------------------------------------|
Bb|--0--------------------0-------------0----------------------------------------------|

[Intro]
(Guitar 1)
(Distorted)
 C|------------------------------------------------------------------------------------|
 G|------------------------------------------------------------------------------------|
Eb|------------------------------------------------------------------------------------|
Bb|------------------------------------------------------------------------------------|
 F|-------------12------------13\12---------------------12------------13\12------------|
Bb|--0--10-12-0----10-0-10-12p------0-10-0-12-0-10-12-0----10-0-10-12p------0-10-0-12--|
                                                                                       
[Intro] 
(Guitar 2)
(Clean)                                                                
 C|------------------------------------------------------8-----------------------------|
 G|------------10-------8----10----11----8----11----8---------11----10-----------------|
Eb|--7----10--------7------------------------------------------------------------------|
Bb|------------------------------------------------------------------------------------|
 F|------------------------------------------------------------------------------------|
Bb|------------------------------------------------------------------------------------|

[Intro] 
(Guitar 1)
(Distorted)
 C|------------------------------------------------------------------------------------|
 G|------------------------------------------------------------------------------------|
Eb|------------------------------------------------------------------------------------|
Bb|------------------------------------------------------------------------------------|
 F|-------------12------------13\12---------------------12--------------6\5--1-0-------|
Bb|--0--10-12-0----10-0-10-12p------0-10-0-12-0-10-12-0----10-0-10-12-0------1-0-------|
                                                                                       
[Intro] 
(Guitar 2) 
(Clean)                                                                
 C|-----------------------8------------------------------------------------------------|
 G|--7----10----7----8---------11------8----11----8----13------------------------------|
Eb|----------------------------------------------------------15-----14b(15)r-----------|
Bb|------------------------------------------------------------------------------------|
 F|------------------------------------------------------------------------------------|
Bb|------------------------------------------------------------------------------------|

[Verse 1]
(Guitar 1)
(Distorted)
 C|------------------------------------------------------------------------------------|
 G|------------------------------------------------------------------------------------|
Eb|------------------------------------------------------------------------------------|
Bb|-----------10-10---------10-10-----------------10-10-------10-10--------------------|
 F|-------8-8-----------8-8-------------------8-8---------8-8--------------------------|
Bb|--0--0-----------0-0-----------0---0---0-0-----------0-----------0------------------|
                                                                                       
[Verse 1]
(Guitar 2)
(Distorted)                                                          
 C|----------------------------------(17)----------------b-----------------------------|
 G|------------------------------------------------------------------------------------|
Eb|--(14)------------------------------------------------------------------------------|
Bb|------------------------------------------------------------------------------------|
 F|------------------------------------------------------------------------------------|
Bb|------------------------------------------------------------------------------------|

[Verse 1]
(Guitar 1) 
(Distorted)
 C|------------------------------------------------------------------------------------|
 G|------------------------------------------------------------------------------------|
Eb|------------------------------------------------------------------------------------|
Bb|-----------10-10---------10-10----------------10-10--------10-10--------------------|
 F|-------8-8-----------8-8------------------8-8----------8-8--------------------------|
Bb|--8--8-----------8-8-----------8--10-1010-----------10-----------10-8-7-------------|
                                                                                       
[Verse 1] 
(Guitar 2) 
(Distorted)                                                          
 C|------------------------------------------------------------------------------------|
 G|--15--------------------------------------------------------------------------------|
Eb|---x--------------------------------------------------------------------------------|
Bb|--12--------------------------------------------------------------------------------|
 F|------------------------------------------------------------------------------------|
Bb|------------------------------------------------------------------------------------|

[Verse 1] 
(Guitar 1)
(Distorted)
 C|------------------------------------------------------------------------------------|
 G|------------------------------------------------------------------------------------|
Eb|------------------------------------------------------------------------------------|
Bb|-----------10-10---------10-10-----------------10-10-------10-10--------------------|
 F|-------8-8-----------8-8-------------------8-8---------8-8--------------------------|
Bb|--0--0-----------0-0-----------0---0---0-0-----------0-----------0------------------|
                                                                                       
[Verse 1]
(Guitar 2) 
(Distorted)                                                          
 C|------------------------------------------------------------------------------------|
 G|-------------------------13---------------------------------------------------------|
Eb|---------------------------------------14-------------------------------------------|
Bb|--12--------------------------------------------------------------------------------|
 F|------------------------------------------------------------------------------------|
Bb|------------------------------------------------------------------------------------|

[Verse 1] 
(Guitar 1) 
(Distorted)
 C|------------------------------------------------------------------------------------|
 G|------------------------------------------------------------------------------------|
Eb|------------------------------------------------------------------------------------|
Bb|-----------10-10---------10-10---------------10-10--------10-10-101010-8-7----------|
 F|-------8-8-----------8-8-----------------8-8----------8-8---------------------------|
Bb|--8--8-----------8-8----------8--10-1010-----------10-------------------------------|
                                                                                       
[Verse 1] 
(Guitar 2) 
(Distorted)                                                          
 C|------------------------------------------------------------------------------------|
 G|------------------------------------------------------------------------------------|
Eb|-------------------------15------------14-------------------------------------------|
Bb|--12--------------------------------------------------------------------------------|
 F|------------------------------------------------------------------------------------|
Bb|------------------------------------------------------------------------------------|

[Pre-Chorus] 
(Guitar 1) 
(Distorted)
 C|------------------------------------------------------------------------------------|
 G|----------------------------------------------x------x------------------------------|
Eb|--10-------10-----10-----10-----9------9------x------x------------------------------|
Bb|--8--------8------8------8------8------8------x------x------------------------------|
 F|--8--------8------8------8------8------8------x------x------------------------------|
Bb|--8--------8------8------8------8------8------x------x------------------------------|

[Chorus] (x2)
(Guitar 1) 
(Distorted) 
 C|------------------------------------------------------------------------------------|
 G|------------------------------------------------------------------------------------|
Eb|------------------------------------------------------------------------------------|
Bb|--0-------0--0----3-------3--3----8-------8--8----8-------8--8/10-------------------|
 F|--0-------0--0----3-------3--3----8-------8--8----8-------8--8/10-------------------|
Bb|--0-------0--0----3-------3--3----8-------8--8----8-------8--8/10-------------------|
                                                                                       
[Chorus]
(Guitar 2) 
(Distorted)                                                           
 C|----------10------8----------10-----------------------------------------------------|
 G|------10--------------------------10--------10--------------------------------------|
Eb|--7------------7------------------------7--------7----10---9------------------------|
Bb|------------------------------------------------------------------------------------|
 F|------------------------------------------------------------------------------------|
Bb|------------------------------------------------------------------------------------|

[Chorus] 
(Guitar 1) 
(Distorted)
 C|------------------------------------------------------------------------------------|
 G|------------------------------------------------------------------------------------|
Eb|------------------------------------------------------------------------------------|
Bb|--0-------0--0----3-------3--3----8-------8--8----8-------8--8\7--------------------|
 F|--0-------0--0----3-------3--3----8-------8--8----8-------8--8\7--------------------|
Bb|--0-------0--0----3-------3--3----8-------8--8----8-------8--8\7--------------------|
                                                                                       
[Chorus] 
(Guitar 2) 
(Distorted)                                                           
 C|----------10------8----------10-----------------------------------------------------|
 G|------10--------------------------10--------10-------------8------------------------|
Eb|--7------------7------------------------7--------7----10----------------------------|
Bb|------------------------------------------------------------------------------------|
 F|------------------------------------------------------------------------------------|
Bb|------------------------------------------------------------------------------------|

[Post-Chorus]
(Guitar 1) 
(Distorted)
 C|------------------------------------------------------------------------------------|
 G|------------------------------------------------------------------------------------|
Eb|------------------------------------------------------------------------------------|
Bb|------------------------------------------------------------------------------------|
 F|-------------12------------13\12---------------------12------------13\12------------|
Bb|--0--10-12-0----10-0-10-12p------0-10-0-12-0-10-12-0----10-0-10-12-------0-10-12----|
                                                                                       
[Post-Chorus]
(Guitar 2) 
(Clean)                                                          
 C|------------------------------------------------------8-----------------------------|
 G|------------10-------8----10----11----8----11----8---------11----10-----------------|
Eb|--7----10--------7------------------------------------------------------------------|
Bb|------------------------------------------------------------------------------------|
 F|------------------------------------------------------------------------------------|
Bb|------------------------------------------------------------------------------------|

[Post-Chorus] 
(Guitar 1) 
(Distorted)
 C|------------------------------------------------------------------------------------|
 G|------------------------------------------------------------------------------------|
Eb|------------------------------------------------------------------------------------|
Bb|------------------------------------------------------------------------------------|
 F|-------------12------------13\12---------------------12--------------6\5--1-0-------|
Bb|--0--10-12-0----10-0-10-12p------0-10-0-12-0-10-12-0----10-0-10-12-0------1-0-------|
                                                                                       
[Post-Chorus] 
(Guitar 2) 
(Clean)                                                          
 C|-----------------------8------------------------------------------------------------|
 G|--7----10----7----8---------11------8----11----8----13------------------------------|
Eb|----------------------------------------------------------15-----14b(15)r-----------|
Bb|------------------------------------------------------------------------------------|
 F|------------------------------------------------------------------------------------|
Bb|------------------------------------------------------------------------------------|

[Verse 2] 
(Guitar 1) 
(Distorted)
 C|------------------------------------------------------------------------------------|
 G|------------------------------------------------------------------------------------|
Eb|------------------------------------------------------------------------------------|
Bb|-----------10-10---------10-10-----------------10-10-------10-10--------------------|
 F|-------8-8-----------8-8-------------------8-8---------8-8--------------------------|
Bb|--0--0-----------0-0-----------0---0---0-0-----------0-----------0------------------|
                                                                                       
[Verse 2] 
(Guitar 2) 
(Distorted)                                                          
 C|----------------------------------(17)----------------b-----------------------------|
 G|------------------------------------------------------------------------------------|
Eb|--(14)------------------------------------------------------------------------------|
Bb|------------------------------------------------------------------------------------|
 F|------------------------------------------------------------------------------------|
Bb|------------------------------------------------------------------------------------|

[Verse 2] 
(Guitar 1) 
(Distorted)
 C|------------------------------------------------------------------------------------|
 G|------------------------------------------------------------------------------------|
Eb|------------------------------------------------------------------------------------|
Bb|-----------10-10---------10-10----------------10-10--------10-10--------------------|
 F|-------8-8-----------8-8------------------8-8----------8-8--------------------------|
Bb|--8--8-----------8-8-----------8--10-1010-----------10-----------10-8-7-------------|
                                                                                       
[Verse 2] 
(Guitar 2)
(Distorted)                                                          
 C|------------------------------------------------------------------------------------|
 G|--15--------------------------------------------------------------------------------|
Eb|---x--------------------------------------------------------------------------------|
Bb|--12--------------------------------------------------------------------------------|
 F|------------------------------------------------------------------------------------|
Bb|------------------------------------------------------------------------------------|

[Verse 2]
(Guitar 1) 
(Distorted)
 C|------------------------------------------------------------------------------------|
 G|------------------------------------------------------------------------------------|
Eb|------------------------------------------------------------------------------------|
Bb|-----------10-10---------10-10-----------------10-10-------10-10--------------------|
 F|-------8-8-----------8-8-------------------8-8---------8-8--------------------------|
Bb|--0--0-----------0-0-----------0---0---0-0-----------0-----------0------------------|
                                                                                       
[Verse 2]
(Guitar 2) 
(Distorted)                                                          
 C|------------------------------------------------------------------------------------|
 G|-------------------------13---------------------------------------------------------|
Eb|---------------------------------------14-------------------------------------------|
Bb|--12--------------------------------------------------------------------------------|
 F|------------------------------------------------------------------------------------|
Bb|------------------------------------------------------------------------------------|

[Verse 2] 
(Guitar 1) 
(Distorted)
 C|------------------------------------------------------------------------------------|
 G|------------------------------------------------------------------------------------|
Eb|------------------------------------------------------------------------------------|
Bb|-----------10-10---------10-10---------------10-10--------10-10-101010-8-7----------|
 F|-------8-8-----------8-8-----------------8-8----------8-8---------------------------|
Bb|--8--8-----------8-8----------8--10-1010-----------10-------------------------------|
                                                                                       
[Verse 2] 
(Guitar 2) 
(Distorted)                                                          
 C|------------------------------------------------------------------------------------|
 G|------------------------------------------------------------------------------------|
Eb|-------------------------15------------14-------------------------------------------|
Bb|--12--------------------------------------------------------------------------------|
 F|------------------------------------------------------------------------------------|
Bb|------------------------------------------------------------------------------------|

[Pre-Chorus] 
(Guitar 1) 
(Distorted)
 C|------------------------------------------------------------------------------------|
 G|----------------------------------------------x------x------------------------------|
Eb|--10-------10-----10-----10-----9------9------x------x------------------------------|
Bb|--8--------8------8------8------8------8------x------x------------------------------|
 F|--8--------8------8------8------8------8------x------x------------------------------|
Bb|--8--------8------8------8------8------8------x------x------------------------------|

[Chorus] (x2)
(Guitar 1) 
(Distorted)
 C|------------------------------------------------------------------------------------|
 G|------------------------------------------------------------------------------------|
Eb|------------------------------------------------------------------------------------|
Bb|--0-------0--0----3-------3--3----8-------8--8----8-------8--8/10-------------------|
 F|--0-------0--0----3-------3--3----8-------8--8----8-------8--8/10-------------------|
Bb|--0-------0--0----3-------3--3----8-------8--8----8-------8--8/10-------------------|
                                                                                       
[Chorus]
(Guitar 2) 
(Distorted)                                                           
 C|----------10------8----------10-----------------------------------------------------|
 G|------10--------------------------10--------10--------------------------------------|
Eb|--7------------7------------------------7--------7----10---9------------------------|
Bb|------------------------------------------------------------------------------------|
 F|------------------------------------------------------------------------------------|
Bb|------------------------------------------------------------------------------------|

[Chorus] 
(Guitar 1) 
(Distorted)
 C|------------------------------------------------------------------------------------|
 G|------------------------------------------------------------------------------------|
Eb|------------------------------------------------------------------------------------|
Bb|--0-------0--0----3-------3--3----8-------8--8----8-------8--8\7--------------------|
 F|--0-------0--0----3-------3--3----8-------8--8----8-------8--8\7--------------------|
Bb|--0-------0--0----3-------3--3----8-------8--8----8-------8--8\7--------------------|
                                                                                       
[Chorus] 
(Guitar 2) 
(Distorted)                                                           
 C|----------10------8----------10-----------------------------------------------------|
 G|------10--------------------------10--------10-------------8------------------------|
Eb|--7------------7------------------------7--------7----10----------------------------|
Bb|------------------------------------------------------------------------------------|
 F|------------------------------------------------------------------------------------|
Bb|------------------------------------------------------------------------------------|

[Bridge] 
(Guitar 1) 
(Distorted)
 C|------------------------------------------------------------------------------------|
 G|------------------------------------------------------------------------------------|
Eb|------------------------------------------------------------------------------------|
Bb|------------------------------------------------------------------------------------|
 F|-------------------3---5-------6---3---5---6------------------3--5---3--0-----------|
Bb|--0----3---5---0-----------0--------------------0---3---5--0----------------3h5-3\1-|
                                                                                       
[Bridge] 
(Guitar 2) 
(Distorted w/ Wah)                                                    
 C|------------------------------------------------------------------------------------|
 G|--15-------------------------10--------8-------11---------------------------10---16-|
Eb|---x--------------------------x--------x--------x----------------------------x----x-|
Bb|--12--------------------------7--------5--------8----------------------------7---13-|
 F|------------------------------------------------------------------------------------|
Bb|------------------------------------------------------------------------------------|

[Bridge] 
(Guitar 1) 
(Distorted)
 C|------------------------------------------------------------------------------------|
 G|------------------------------------------------------------------------------------|
Eb|------------------------------------------------------------------------------------|
Bb|------------------------------------------------------------------------------------|
 F|-------------------3---5-------6---3---5---6-------------------3--5---3--0------1---|
Bb|--0----3---5---0-----------0--------------------0---3---5---0-------------------1---|
                                                                                       
[Bridge]
(Guitar 2) 
(Distorted w/ Wah)                                                    
 C|------------------------------------------------------------------------------------|
 G|--15-------------------------10-------13-------11-------------------------10---16---|
Eb|---x--------------------------x--------x--------x--------------------------x----x---|
Bb|--12--------------------------7-------10--------8--------------------------7---13---|
 F|------------------------------------------------------------------------------------|
Bb|------------------------------------------------------------------------------------|

[Bridge] 
(Guitar 1) 
(Distorted)
 C|------------------------------------------------------------------------------------|
 G|------------------------------------------------------------------------------------|
Eb|------------------------------------------------------------------------------------|
Bb|------------------------------------------------------------------------------------|
 F|--0----3---5---0---3---5---0---6---3---5---6----0---3---5---0--3--5---3--0--3h5-3\1-|
Bb|--0----3---5---0-----------0--------------------0---3---5---0---------------3h5-3\1-|
                                                                                       
[Bridge] 
(Guitar 2) 
(Distorted)                                                           
 C|------------------------------------------------------------------------------------|
 G|----------------------------------------------13------------------------------------|
Eb|--14h15-14-12-14-15-14-12-14-15-14-12-14-15-14--15-14-12-14-15-14-13-14-15-14-12-14-|
Bb|------------------------------------------------------------------------------------|
 F|------------------------------------------------------------------------------------|
Bb|------------------------------------------------------------------------------------|

[Bridge] 
(Guitar 1) 
(Distorted)
 C|------------------------------------------------------------------------------------|
 G|------------------------------------------------------------------------------------|
Eb|------------------------------------------------------------------------------------|
Bb|---------------------------------------------------------------------------3--3-----|
 F|--0----3---5---0---3---5---0---6---3---5---6----0---3---5---0--3--5-----1--1--1--0--|
Bb|--0----3---5---0-----------0--------------------0---3---5---0-----------1--------0--|
                                                                                       
[Bridge] 
(Guitar 2) 
(Distorted)                                                           
 C|------------------------------------------------------------------------6--8-----8\-|
 G|------------------------------------------------------------------------6--6-----8\-|
Eb|--11/12-11/12-----------------10--------12--------11--------------------------------|
Bb|--------------9--10-12--10-12-----10-12-----10-12-----10-12-13-10-12-13-------------|
 F|------------------------------------------------------------------------------------|
Bb|------------------------------------------------------------------------------------|

[Chorus] (x2)
(Guitar 1) 
(Distorted)
 C|------------------------------------------------------------------------------------|
 G|------------------------------------------------------------------------------------|
Eb|------------------------------------------------------------------------------------|
Bb|--0-------0--0----3-------3--3----8-------8--8----8-------8--8/10-------------------|
 F|--0-------0--0----3-------3--3----8-------8--8----8-------8--8/10-------------------|
Bb|--0-------0--0----3-------3--3----8-------8--8----8-------8--8/10-------------------|
                                                                                       
[Chorus] 
(Guitar 2) 
(Distorted)                                                           
 C|----------10------8----------10-----------------------------------------------------|
 G|------10--------------------------10--------10--------------------------------------|
Eb|--7------------7------------------------7--------7----10---9------------------------|
Bb|------------------------------------------------------------------------------------|
 F|------------------------------------------------------------------------------------|
Bb|------------------------------------------------------------------------------------|

[Chorus] 
(Guitar 1) 
(Distorted)
 C|------------------------------------------------------------------------------------|
 G|------------------------------------------------------------------------------------|
Eb|------------------------------------------------------------------------------------|
Bb|--0-------0--0----3-------3--3----8-------8--8----8-------8--8\7--------------------|
 F|--0-------0--0----3-------3--3----8-------8--8----8-------8--8\7--------------------|
Bb|--0-------0--0----3-------3--3----8-------8--8----8-------8--8\7--------------------|
                                                                                       
[Chorus] 
(Guitar 2) 
(Distorted)                                                           
 C|----------10------8----------10-----------------------------------------------------|
 G|------10--------------------------10--------10-------------8------------------------|
Eb|--7------------7------------------------7--------7----10----------------------------|
Bb|------------------------------------------------------------------------------------|
 F|------------------------------------------------------------------------------------|
Bb|------------------------------------------------------------------------------------|

[Outro] 
(Guitar 1) 
(Distorted)
 C|------------------------------------------------------------------------------------|
 G|------------------------------------------------------------------------------------|
Eb|------------------------------------------------------------------------------------|
Bb|------------------------------------------------------------------------------------|
 F|-------------12------------13\12---------------------12------------13\12------------|
Bb|--0--10-12-0----10-0-10-12p------0-10-0-12-0-10-12-0----10-0-10-12-------0-10-12----|
                                                                                       
[Outro] 
(Guitar 2) 
(Clean)                                                                
 C|------------------------------------------------------8-----------------------------|
 G|------------10-------8----10----11----8----11----8---------11----10-----------------|
Eb|--7----10--------7------------------------------------------------------------------|
Bb|------------------------------------------------------------------------------------|
 F|------------------------------------------------------------------------------------|
Bb|------------------------------------------------------------------------------------|

[Outro] 
(Guitar 1) 
(Distorted)
 C|------------------------------------------------------------------------------------|
 G|------------------------------------------------------------------------------------|
Eb|------------------------------------------------------------------------------------|
Bb|------------------------------------------------------------------------------------|
 F|-------------12------------13\12---------------------12--------------6\5--1-0-------|
Bb|--0--10-12-0----10-0-10-12p------0-10-0-12-0-10-12-0----10-0-10-12-0------1-0-------|
                                                                                       
[Outro] 
(Guitar 2) 
(Clean)                                                                
 C|-----------------------8------------------------------------------------------------|
 G|--7----10----7----8---------11------8----11----8----13------------------------------|
Eb|----------------------------------------------------------15-----14b(15)r-----------|
Bb|------------------------------------------------------------------------------------|
 F|------------------------------------------------------------------------------------|
Bb|------------------------------------------------------------------------------------|

[Outro] 
(Guitar 1) 
(Distorted)
 C|------------------------------------------------------------------------------------|
 G|------------------------------------------------------------------------------------|
Eb|------------------------------------------------------------------------------------|
Bb|------------------------------------------------------------------------------------|
 F|--(0)-------------------------------------------------------------------------------|
Bb|--(0)-------------------------------------------------------------------------------|
                                                                                       
[Outro] 
(Guitar 2) 
(Distorted)                                                            
 C|----------------------------------(17)----------------------------------------------|
 G|------------------------------------------------------------------------------------|
Eb|--(14)------------------------------------------------------------------------------|
Bb|------------------------------------------------------------------------------------|
 F|------------------------------------------------------------------------------------|
Bb|------------------------------------------------------------------------------------|

2. Song: i will not bow

Tuning Bb F Bb Eb G C

(For those of you who don't know: I tabbed this almost exactally like Aaron
plays it in the GuitarWorld Lesson. After watching that video I made updates
on this tab, so basically, this tab is how Ben and Aaron play this song.)

[Intro] 
(Guitar 1)
(Distorted with Wah) BEN
 C|--------------------------------------------------------------------------|
 G|--------------------------------------------------------------------------|
Eb|--------------------------------------------------------------------------|
Bb|--------------------------------------------------------------------------|
 F|-----------------------------------3--------------------------------------|
Bb|--0-h2--2---2---3-p2--2---2--0-h2---------0-h2--2---2---3-p2--2---0---5---|
                                                                             
[Intro] 
(Guitar 2) 
(Distorted) 
AARON TAP ALL NOTES                              
 C|--------------------------------------------------------------------------|
 G|--------------------------------------------------------------------------|
Eb|----4-9----4-7----4--------4------4---------4-9----4-7----4---------------|
Bb|--2------2------2----10--2---9--2---7/9---2------2------2----10-2-10-2--7-|
 F|--------------------------------------------------------------------------|
Bb|--------------------------------------------------------------------------|

[Intro] 
(Guitar 1) 
(Distorted with Wah) 
BEN
 C|--------------------------------------------------------------------------|
 G|--------------------------------------------------------------------------|
Eb|--------------------------------------------------------------------------|
Bb|--------------------------------------------------------------------------|
 F|-----------------------------------3--------------------------------------|
Bb|--0-h2--2---2---3-p2--2---2--0-h2---------0-h2--2---2---3-p2----2-----2---|
                                                                             
[Intro] 
(Guitar 2) 
(Distorted) 
AARON TAP ALL NOTES                              
 C|--------------------------------------------------------------------------|
 G|--------------------------------------------------------------------------|
Eb|----4-9----4-7----4--------4------4---------4-9----4-7----4---------------|
Bb|--2------2------2----10--2---9--2---7/9---2------2------2----10-2-10-2--7-|
 F|--------------------------------------------------------------------------|
Bb|--------------------------------------------------------------------------|

[Intro] 
(Guitars 1 & 2) 
(Distorted)
 C|--------------------------------------------------------------------------|
 G|--------------------------------------------------------------------------|
Eb|--------------------------------------------------------------------------|
Bb|--------------------------------------------------------------------------|
 F|--0--2----2---2--3--2----2---2--0--2--3---0--2----2--3--2---2----2--0--5--|
Bb|--0--2----2---2--3--2----2---2--0--2------0--2----2--3--2---2----2--0--5--|

[Intro] 
(Guitar 1)
(Distorted)
 C|--------------------------------------------------------------------------|
 G|--------------------------------------------------------------------------|
Eb|--------------------------------------------------------------------------|
Bb|--10--------10--------10---10------7---7---------0--0--3--0--2------------|
 F|--10--------10--------10---10------7---7---------0--0--3--0--2------------|
Bb|--10--------10--------10---10------7---7------------0--3--0--2------------|
                                                                             
[Intro] 
(Guitar 2)
(Distorted)                                                  
 C|--------------------------------------------------------------------------|
 G|--13--------12---------8-----------5--------------8-10-12-13-12-----------|
Eb|---x---------x---------x-----------x--------------x--x--x--x--x-----------|
Bb|--10---------9---------5-----------2--------------5--7--9-10--9-----------|
 F|--------------------------------------------------------------------------|
Bb|--------------------------------------------------------------------------|

[Verse 1] 
(Guitar 1) 
(Distorted)
 C|--------------------------------------------------------------0-----------|
 G|------------------------------------------------------------0-------------|
Eb|---------------------------------------5----------------------------------|
Bb|-(2)-----------------------------------5----------------------------------|
 F|-(2)-----------------------------------3----------------------------------|
Bb|-(2)------------------------------------------------------0---------------|
                                                                             
[Verse 1] 
(Guitar 2) 
(Distorted)                                                
 C|--------------------------------------------------------------0-----------|
 G|------------------------------------------------------------0-------------|
Eb|--9------------------------------------9----------------------------------|
Bb|--9-----------------------------------10----------------------------------|
 F|--7------------------------------------7----------------------------------|
Bb|----------------------------------------------------------0---------------|

[Verse 1] 
(Guitar 1) 
(Distorted)
 C|--------------------------------------------------------------0-----------|
 G|------------------------------------------------------------0-------------|
Eb|--4------------------------------------5----------------------------------|
Bb|--2------------------------------------5----------------------------------|
 F|--2------------------------------------3----------------------------------|
Bb|--2-------------------------------------------------------0---------------|
                                                                             
[Verse 1] 
(Guitar 2) 
(Distorted)                                                
 C|--------------------------------------------------------------0-----------|
 G|------------------------------------------------------------0-------------|
Eb|--9------------------------------------9----------------------------------|
Bb|--9-----------------------------------10----------------------------------|
 F|--7------------------------------------7----------------------------------|
Bb|----------------------------------------------------------0---------------|

[Verse 1] 
(Guitar 2) 
(Distorted)
 C|--------------------------------------------------------------------------|
 G|--------------------------------------------------------------------------|
Eb|--------------------------------------------------------------------------|
Bb|--------------------------------------------------------------------------|
 F|--2---2---2-------------5p0-------2---2---2-------------5b----------------|
Bb|--2---2---2-------0h5h7-----5h7---2---2---2-------0h5h7-------------------|

[Verse 1] 
(Guitar 2) 
(Distorted)
 C|--------------------------------------------------------------------------|
 G|--------------------------------------------------------------------------|
Eb|--------------------------------------------------------------------------|
Bb|--5---5---5---------------------------------------------------------------|
 F|--3---3---3-----------------------0---0---0-------------------------------|
Bb|--2---2---2-------0h2p0-5\4-0h2---0---0---0-------0-5-0-4/5\4-------------|

[Verse 1]
(Guitar 2) 
(Distorted)
 C|--------------------------------------------------------------------------|
 G|--------------------------------------------------------------------------|
Eb|--------------------------------------------------------------------------|
Bb|--------------------------------------------------------------------------|
 F|--2---2---2-------------5p0-------2---2---2-------------5b----------------|
Bb|--2---2---2-------0h5h7-----5h7---2---2---2-------0h5h7-------------------|

[Verse 1] 
(Guitar 2) 
(Distorted)
 C|--------------------------------------------------------------------------|
 G|--------------------------------------------------------------------------|
Eb|--------------------------------------------------------------------------|
Bb|--5---5---5---------------------------------------------------------------|
 F|--3---3---3-----------------------0---0---0-------------------------------|
Bb|--2---2---2-------0h2p0-5\4-0h2---0---0---0-------0-5-0-4/5\4-------------|

[Pre-Chorus] 
(Guitar 1) 
(Distorted)
 C|--------------------------------------------------------------------------|
 G|-------------------3---------------------------------3--------------------|
Eb|--5----------------2----------------5----------------2--------------------|
Bb|--5----------------0----------------5----------------0--------------------|
 F|--3----------------0----------------3----------------0-----------0--------|
Bb|-------------------0---------------------------------0-----------0--------|
                                                                             
[Pre-Chorus] 
[Guitar 2] 
(Clean)                                                 
 C|--------------------------------------------------------------------------|
 G|------------------------------------------------------------------10------|
Eb|-----------11--12------------------------------11--12----------12---------|
Bb|-----12-----------------12---------------12-----------------12------------|
 F|--10----10-----------12----12-10-9----10----10------------0---------------|
Bb|--------------------------------------------------------------------------|

[Chorus] 
(Guitar 1) 
(Distorted)
 C|-----------------0---------------------------------0----------------------|
 G|-----------------0---------------------------------0----------------------|
Eb|--4-----4-----4-----------------------------------------------------------|
Bb|--2-----2-----2-------0---0---0-0----0-10--10--10-------10--10--10-10-----|
 F|--2-----2-----2-------0---0---0-0----0-10--10--10-------10--10--10-10--0--|
Bb|--2-----2-----2-------0---0---0-0----0-10--10--10-------10--10--10-10--0--|
                                                                             
[Chorus] 
(Guitar 3) 
STUDIO FILL IN 
(Distorted)                                  
 C|--------------------------------------------------------------------------|
 G|--------------------------------------------------------------------------|
Eb|--9-----9-----9-------11-11--11-12--14-12--12--12-------12----------------|
Bb|--x-----x-----x--------x--x---x--x---x--x---x---x--------x----------------|
 F|--7-----7-----7--------9--9---9-10--12-10--10--10-------10----------------|
Bb|--------------------------------------------------------------------------|

[Chorus] 
(Guitar 1) 
(Distorted)
 C|-----------------0---------------------------------0----------------------|
 G|-----------------0---------------------------------0----------------------|
Eb|--4-----4-----4-----------------------------------------------------------|
Bb|--2-----2-----2-------0---0---0-0----0-10--10--10-------10--10--10-10-----|
 F|--2-----2-----2-------0---0---0-0----0-10--10--10-------10--10--10-10--5--|
Bb|--2-----2-----2-------0---0---0-0----0-10--10--10-------10--10--10-10--5--|
                                                                             
[Chorus] 
[Guitar 3]
STUDIO FILL IN 
(Distorted)                                  
 C|--------------------------------------------------------------------------|
 G|--------------------------------------------------------------------------|
Eb|--9-----9-----9-------11-11--11-14-11--12--12--12-------12----------------|
Bb|--x-----x-----x--------x--x---x--x--x---x---x---x--------x----------------|
 F|--7-----7-----7--------9--9---9-12--9--10--10--10-------10----------------|
Bb|--------------------------------------------------------------------------|

[Post-Chorus] 
(Guitars 1 & 2) 
(Distorted)
 C|--------------------------------------------------------------------------|
 G|--------------------------------------------------------------------------|
Eb|--------------------------------------------------------------------------|
Bb|--------------------------------------------------------------------------|
 F|--0--2----2---2--3--2----2---2--0--2--3---0--2----2--3--2---2----2--0--5--|
Bb|--0--2----2---2--3--2----2---2--0--2------0--2----2--3--2---2----2--0--5--|

[Post-Chorus] 
(Guitar 1) 
(Distorted)
 C|--------------------------------------------------------------------------|
 G|--------------------------------------------------------------------------|
Eb|--------------------------------------------------------------------------|
Bb|--10--------10--------10---10------7---7---------7--x-x-x-3--2------------|
 F|--10--------10--------10---10------7---7---------7--x-x-x-3--2------------|
Bb|--10--------10--------10---10------7---7---------7--x-x-x-3--2------------|
                                                                             
[Post-Chorus] 
(Guitar 2) 
(Distorted)                                            
 C|--------------------------------------------------------------------------|
 G|--13--------12---------8-----------5--------------8-10-12-13-12-----------|
Eb|---x---------x---------x-----------x--------------x--x--x--x--x-----------|
Bb|--10---------9---------5-----------2--------------5--7--9-10--9-----------|
 F|--------------------------------------------------------------------------|
Bb|--------------------------------------------------------------------------|

[Verse 2] 
(Guitar 1) 
(Distorted)
 C|--------------------------------------------------------------0-----------|
 G|------------------------------------------------------------0-------------|
Eb|---------------------------------------5----------------------------------|
Bb|-(2)-----------------------------------5----------------------------------|
 F|-(2)-----------------------------------3----------------------------------|
Bb|-(2)------------------------------------------------------0---------------|
                                                                             
[Verse 2] 
(Guitar 2) 
(Distorted)                                                
 C|--------------------------------------------------------------0-----------|
 G|------------------------------------------------------------0-------------|
Eb|--9------------------------------------9----------------------------------|
Bb|--9-----------------------------------10----------------------------------|
 F|--7------------------------------------7----------------------------------|
Bb|----------------------------------------------------------0---------------|

[Verse 2]
(Guitar 2) 
(Distorted)
 C|--------------------------------------------------------------------------|
 G|--------------------------------------------------------------------------|
Eb|----------------------x-x-------------------------------------x-x---------|
Bb|----------------------x-x-0--4--5-----------------------------x-x-0--5--4-|
 F|--0-2-2--0-2-2-2--0-2-x-x-0--4--5-10-10-10-12-10-10-10-12-10--x-x-0--5--5-|
Bb|--0-2-2--0-2-2-2--0-2-x-x-0--4--5-10-10-10-12-10-10-10-12-10--x-x-0--5--4-|

[Pre-Chorus] 
(Guitar 1) 
(Distorted)
 C|--------------------------------------------------------------------------|
 G|-------------------3---------------------------------3--------------------|
Eb|--5----------------2----------------5----------------2--------------------|
Bb|--5----------------0----------------5----------------0--------------------|
 F|--3----------------0----------------3----------------0-----------0--------|
Bb|-------------------0---------------------------------0-----------0--------|
                                                                             
[Pre-Chorus] 
(Guitar 2) 
(Clean)                                                 
 C|--------------------------------------------------------------------------|
 G|------------------------------------------------------------------10------|
Eb|-----------11--12------------------------------11--12----------12---------|
Bb|-----12-----------------12---------------12-----------------12------------|
 F|--10----10-----------12----12-10-9----10----10------------0---------------|
Bb|--------------------------------------------------------------------------|

[Chorus] 
(Guitar 1) 
(Distorted)
 C|-----------------0---------------------------------0----------------------|
 G|-----------------0---------------------------------0----------------------|
Eb|--4-----4-----4-----------------------------------------------------------|
Bb|--2-----2-----2-------0---0---0-0----0-10--10--10-------10--10--10-10-----|
 F|--2-----2-----2-------0---0---0-0----0-10--10--10-------10--10--10-10--0--|
Bb|--2-----2-----2-------0---0---0-0----0-10--10--10-------10--10--10-10--0--|
                                                                             
[Chorus] 
(Guitar 2) 
(Distorted) 
ALL HARMONICS                                   
 C|--12----12-----------12----12---------12----12-----------12----12---------|
 G|---------------7---------------7-------------------7------------------7---|
Eb|------7-----5-----7------7--------5-------7-----5-----7------7-----5------|
Bb|--------------------------------------------------------------------------|
 F|--------------------------------------------------------------------------|
Bb|--------------------------------------------------------------------------|
                                                                             
[Chorus] 
(Guitar 3) 
STUDIO FILL IN 
(Distorted)                                  
 C|--------------------------------------------------------------------------|
 G|--------------------------------------------------------------------------|
Eb|--9-----9-----9-------11-11--11-12--14-12--12--12-------12----------------|
Bb|--x-----x-----x--------x--x---x--x---x--x---x---x--------x----------------|
 F|--7-----7-----7--------9--9---9-10--12-10--10--10-------10----------------|
Bb|--------------------------------------------------------------------------|

[Chorus] 
(Guitar 1) 
(Distorted)
 C|-----------------0---------------------------------0----------------------|
 G|-----------------0---------------------------------0----------------------|
Eb|--4-----4-----4-----------------------------------------------------------|
Bb|--2-----2-----2-------0---0---0-0----0-10--10--10-------10--10--10-10-----|
 F|--2-----2-----2-------0---0---0-0----0-10--10--10-------10--10--10-10--5--|
Bb|--2-----2-----2-------0---0---0-0----0-10--10--10-------10--10--10-10--5--|
                                                                             
[Chorus] 
(Guitar 2) 
(Distorted) 
ALL HARMONICS                                   
 C|--12----12-----------12----12---------12----12-----------12----12---------|
 G|---------------7---------------7-------------------7------------------7---|
Eb|------7-----5-----7------7--------5-------7-----5-----7------7-----5------|
Bb|--------------------------------------------------------------------------|
 F|--------------------------------------------------------------------------|
Bb|--------------------------------------------------------------------------|
                                                                             
[Chorus] 
(Guitar 3) 
STUDIO FILL IN 
(Distorted)                                  
 C|--------------------------------------------------------------------------|
 G|--------------------------------------------------------------------------|
Eb|--9-----9-----9-------11-11--11-14-11--12--12--12-------12----------------|
Bb|--x-----x-----x--------x--x---x--x--x---x---x---x--------x----------------|
 F|--7-----7-----7--------9--9---9-12--9--10--10--10-------10----------------|
Bb|--------------------------------------------------------------------------|

[Chorus] 
(Guitar 1) 
(Distorted) 
 C|-----------------0---------------------------------0----------------------|
 G|-----------------0---------------------------------0----------------------|
Eb|--------------------------------------------------------------------------|
Bb|----------------------0---0---0-0----0-10--10--10-------10--10--10-10-----|
 F|--0--2--2--0--2-------0---0---0-0----0-10--10--10-------10--10--10-10--0--|
Bb|--0--2--2--0--2-------0---0---0-0----0-10--10--10-------10--10--10-10--0--|
                                                                             
[Chorus] 
(Guitar 2) 
(Distorted)                                                 
 C|---0---0--0--0--0--0--0---0--0--0--0--0---0--0--0--0--0--0---0--0--7b8r7--|
 G|---3/5-5--5--8--7--3--3/5-5--5--7--8--3/5-5--5--8--7--3--3/5-5--5---------|
Eb|--------------------------------------------------------------------------|
Bb|--------------------------------------------------------------------------|
 F|--------------------------------------------------------------------------|
Bb|--------------------------------------------------------------------------|
                                                                             
[Chorus] 
(Guitar 3) 
STUDIO FILL IN 
(Distorted)                                  
 C|--------------------------------------------------------------------------|
 G|--------------------------------------------------------------------------|
Eb|--9-----9-----9-------11-11--11-12--14-12--12--12-------12----------------|
Bb|--x-----x-----x--------x--x---x--x---x--x---x---x--------x----------------|
 F|--7-----7-----7--------9--9---9-10--12-10--10--10-------10----------------|
Bb|--------------------------------------------------------------------------|

[Chorus] 
(Guitar 1) 
(Distorted)
 C|-----------------0---------------------------------0----------------------|
 G|-----------------0---------------------------------0----------------------|
Eb|--4-----4-----4-----------------------------------------------------------|
Bb|--2-----2-----2-------0---0---0-0----0-10--10--10-------10--10--10-10-----|
 F|--2-----2-----2-------0---0---0-0----0-10--10--10-------10--10--10-10--5--|
Bb|--2-----2-----2-------0---0---0-0----0-10--10--10-------10--10--10-10--5--|
                                                                             
[Chorus] 
(Guitar 2) 
(Distorted)                                                 
 C|---0---0--0--0--0--0--0---0--0--0--0--0---0--0--0--0--0--0---0--0--7b8r7--|
 G|---3/5-5--5--8--7--3--3/5-5--5--7--8--3/5-5--5--8--7--3--3/5-5--5---------|
Eb|--------------------------------------------------------------------------|
Bb|--------------------------------------------------------------------------|
 F|--------------------------------------------------------------------------|
Bb|--------------------------------------------------------------------------|
                                                                             
[Chorus] 
(Guitar 3) 
STUDIO FILL IN 
(Distorted)                                  
 C|--------------------------------------------------------------------------|
 G|--------------------------------------------------------------------------|
Eb|--9-----9-----9-------11-11--11-14-11--12--12--12-------12----------------|
Bb|--x-----x-----x--------x--x---x--x--x---x---x---x--------x----------------|
 F|--7-----7-----7--------9--9---9-12--9--10--10--10-------10----------------|
Bb|--------------------------------------------------------------------------|

[Bridge] 
(Guitar 1) 
(Distorted)
 C|--------------------------------------------------------------------------|
 G|--------------------------------------------------------------------------|
Eb|----------------7PH-------------------------------------------------------|
Bb|--------------------7--7PH------------------------------------------------|
 F|--7----10----7--------------7----10----7----------------------------------|
Bb|---------------------------------------------------------2--5--0----------|
                                                                             
[Bridge] 
(Guitar 2) 
(Distorted with WAH)                                        
 C|-------------------------------------------------------------/--\---------|
 G|-------------------------------------------------------------/--\---------|
Eb|-------------------------------------------------------------/--\---------|
Bb|-------------------------------------------------------------/--\---------|
 F|-------------------------------------------------------------/--\---------|
Bb|-------------------------------------------------------------/--\---------|

[Bridge] 
(Guitar 1) 
(Distorted)
 C|--------------------------------------------------------------------------|
 G|--------------------------------------------------------------------------|
Eb|----------------------------9/10\9-7-9---------------------------9/10\9-12|
Bb|----------------------------x--x-x-x-x---------------------------x--x-x--x|
 F|--2--5--2--8--7--3--2--5--2-7/-8\7-5-7-2--5--2--8--7--3--2--5--2-7/-8\7-10|
Bb|--2--5--2--8--7--3--2--5--2------------2--5--2--8--7--3--2--5--2----------|

[Bridge] 
(Guitar 1) 
(Distorted)
 C|--------------------------------------------------------------------------|
 G|--------------------------------------------------------------------------|
Eb|----------------------------9/10\9-7-9------------------------------------|
Bb|----------------------------x--x-x-x-x------------------------------------|
 F|--2--5--2--8--7--3--2--5--2-7/-8\7-5-7-2--5--2--8--7--3--2--5--2--0-0--5--|
Bb|--2--5--2--8--7--3--2--5--2------------2--5--2--8--7--3--2--5--2--0-0--5--|

[Bridge/Solo] 
(Guitar 2) 
(Distorted)
 C|---------15--14----15-/19--15--14--/17--15--14----------15--14------------|
 G|--/17--------------------------------------------17-----------------------|
Eb|--------------------------------------------------------------------------|
Bb|--------------------------------------------------------------------------|
 F|--------------------------------------------------------------------------|
Bb|--------------------------------------------------------------------------|

[Bridge/Solo]
(Guitar 2) 
(Distorted)
 C|-----------------------------------------------------------15--14---------|
 G|--19-15----15-19/20\19-15-19-15-19-15-19-15----15---17--------------------|
Eb|--------16----------------------------------16----------------------------|
Bb|--------------------------------------------------------------------------|
 F|--------------------------------------------------------------------------|
Bb|--------------------------------------------------------------------------|

[Bridge/Solo] 
(Guitar 2) 
(Distorted)
 C|--15-/19--15--14--/20--15--14----------12-/14-----------------------------|
 G|--------------------------------12-----------------10-13-12-10--8---------|
Eb|------------------------------------------------12------------------------|
Bb|--------------------------------------------------------------------------|
 F|--------------------------------------------------------------------------|
Bb|--------------------------------------------------------------------------|

[Bridge/Solo] 
(Guitar 2)
(Distorted)
 C|---------7----------------------------------------------------------------|
 G|--7h8h10-----8-p7--5-p3--0-h3--5/7--5*------------------------------------|
Eb|--------------------------------------------------------------------------|
Bb|--------------------------------------------------------------------------|
 F|--------------------------------------------------------------------------|
Bb|--------------------------------------------------------------------------|

[Chorus] 
(Guitar 1) 
(Distorted)
 C|----------------------------------------------------0---------------------|
 G|----------------------------------------------------0---------------------|
Eb|--------------------------------------------------------------------------|
Bb|--2-----2-----2-------0----0----0-------10--10--10-------10--10--10-10----|
 F|--2-----2-----2-------0----0----0-------10--10--10-------10--10--10-10--0-|
Bb|--2-----2-----2-------0----0----0-------10--10--10-------10--10--10-10--0-|
                                                                             
[Chorus] Guitar 2 (Distorted) ALL HARMONICS                                   
 C|----------------------------------------12----12-----------12----12-------|
 G|-(5*)------------------------------------------------7------------------7-|
Eb|--------------------------------------------7-----5-----7------7-----5----|
Bb|--------------------------------------------------------------------------|
 F|--------------------------------------------------------------------------|
Bb|--------------------------------------------------------------------------|
                                                                             
[Chorus] 
(Guitar 3)
STUDIO FILL IN 
(Distorted)                                  
 C|--------------------------------------------------------------------------|
 G|--------------------------------------------------------------------------|
Eb|----------------------------------------12--12--12-------12---------------|
Bb|-----------------------------------------x---x---x--------x---------------|
 F|----------------------------------------10--10--10-------10---------------|
Bb|--------------------------------------------------------------------------|

[Chorus]
(Guitar 1) 
(Distorted)
 C|-----------------0---------------------------------0----------------------|
 G|-----------------0---------------------------------0----------------------|
Eb|--4-----4-----4-----------------------------------------------------------|
Bb|--2-----2-----2-------0---0---0-0----0-10--10--10-------10--10--10-10-----|
 F|--2-----2-----2-------0---0---0-0----0-10--10--10-------10--10--10-10--5--|
Bb|--2-----2-----2-------0---0---0-0----0-10--10--10-------10--10--10-10--5--|
                                                                             
[Chorus] 
(Guitar 2) 
(Distorted)
ALL HARMONICS                                   
 C|--12----12-----------12----12---------12----12-----------12----12---------|
 G|---------------7---------------7-------------------7------------------7---|
Eb|------7-----5-----7------7--------5-------7-----5-----7------7-----5------|
Bb|--------------------------------------------------------------------------|
 F|--------------------------------------------------------------------------|
Bb|--------------------------------------------------------------------------|
                                                                             
[Chorus] 
(Guitar 3) 
STUDIO FILL IN 
(Distorted)                                  
 C|--------------------------------------------------------------------------|
 G|--------------------------------------------------------------------------|
Eb|--9-----9-----9-------11-11--11-14-11--12--12--12-------12----------------|
Bb|--x-----x-----x--------x--x---x--x--x---x---x---x--------x----------------|
 F|--7-----7-----7--------9--9---9-12--9--10--10--10-------10----------------|
Bb|--------------------------------------------------------------------------|

[Chorus] 
(Guitar 1) 
(Distorted) (x2)
 C|-----------------0---------------------------------0----------------------|
 G|-----------------0---------------------------------0----------------------|
Eb|--4-----4-----4-----------------------------------------------------------|
Bb|--2-----2-----2-------0---0---0-0----0-10--10--10-------10--10--10-10-----|
 F|--2-----2-----2-------0---0---0-0----0-10--10--10-------10--10--10-10-9-5-|
Bb|--2-----2-----2-------0---0---0-0----0-10--10--10-------10--10--10-10-9-5-|
                                                                             
[Chorus]
(Guitar 2) 
(Distorted)                                                 
 C|--0---0--0--0--0--0--0---0--0--0--0----3p0-7p0-8p0-7p0-5p0-3p0-2p0-3p0----|
 G|--3/5-5--5--8--7--3--3/5-5--5--7--8---------------------------------------|
Eb|--------------------------------------------------------------------------|
Bb|--------------------------------------------------------------------------|
 F|--------------------------------------------------------------------------|
Bb|--------------------------------------------------------------------------|

[Outro] 
(Guitars 1 & 2) 
(Distorted)
 C|--------------------------------------------------------------------------|
 G|--------------------------------------------------------------------------|
Eb|--------------------------------------------------------------------------|
Bb|--------------3--------------------------------------------2--------------|
 F|--2h3p2--0--2----2--0--3---2h3p2--0--2---------------------2--------------|
Bb|--2h3p2--0--2----2--0--3---2h3p2--0--2--8-7p0--5-7p0--3h5--2--------------|


3. Song: crawl

Tuning Bb F Bb Eb G C

[Intro] 
(Guitar 1 Distorted)
(Ben)
 C|-------------------------------------------------------------------------------------|
 G|-------------------------------------------------------------------------------------|
Eb|-------------------------------------------------------------------------------------|
Bb|-------------------------------------------------------------------------------------|
 F|--7-7-7--2-2-2--3-3-3--3-3-3-------3-2----7-7-7--2-2-2--3-3-3--3-3-3--2-2---2--------|
Bb|--7-7-7--2-2-2--3-3-3---------2-2---------7-7-7--2-2-2--3-3-3---------2-2---2--------|

[Intro] 
(Guitar 1) 
(Distorted)
 C|-------------------------------------------------------------------------------------|
 G|-------------------------------------------------------------------------------------|
Eb|-------------------------------------------------------------------------------------|
Bb|-------------------------------------------------------------------------------------|
 F|--7-7-7--2-2-2--3-3-3--3-3-3-------3-2----3--3--3--3----3--3--3--3----3---2----------|
Bb|--7-7-7--2-2-2--3-3-3---------2-2---------3--3--3--3----3--3--3--3----3---2----------|

[Intro] 
(Guitar 1) 
(Distorted)
 C|-------------------------------------------------------------------------------------|
 G|-------------------------------------------------------------------------------------|
Eb|-------------------------------------------------------------------------------------|
Bb|-------------------------------------------------------------------------------------|
 F|--7-7-7--2-2-2--3-3-3--3-3-3-------3-2----7-7-7--2-2-2--3-3-3--2-2-2--3-2------------|
Bb|--7-7-7--2-2-2--3-3-3---------2-2---------7-7-7--2-2-2--3-3-3--2-2-2------5-2--------|
                                                                                        
[Intro] 
(Guitar 2) 
(Aaron)                                                                 
 C|-------------------------------------------------------------------------------------|
 G|-101010-181818-171717-131313-1515-1717---202020-181818-171717-1313-1515-17-17--------|
Eb|--x-x-x--x-x-x--x-x-x--x-x-x--x-x--x-x----x-x-x--x-x-x--x-x-x--x-x--x-x--x--x--------|
Bb|--7-7-7-151515-141414-101010-1212-1414---171717-151515-141414-1010-1212-14-14--------|
 F|-------------------------------------------------------------------------------------|
Bb|-------------------------------------------------------------------------------------|

[Intro] 
(Guitar 1)
(Distorted)
 C|-------------------------------------------------------------------------------------|
 G|-------------------------------------------------------------------------------------|
Eb|-------------------------------------------------------------------------------9-----|
Bb|-------------------------------------------------------------------------------7-----|
 F|--7-7-7--2-2-2--3-3-3--3-3-3-------3-2----3--3--3--3----3--3--3--3----3---2----7-----|
Bb|--7-7-7--2-2-2--3-3-3---------2-2---------3--3--3--3----3--3--3--3----3---2----7-----|
                                                                                        
[Intro] 
(Guitar 2) 
(Aaron)                                                                 
 C|-------------------------------------------------------------------------------------|
 G|-101010-181818-171717-131313-1515-1717---13-13-13-13---13-13-13-13---13--12----------|
Eb|--x-x-x--x-x-x--x-x-x--x-x-x--x-x--x-x----x--x--x--x----x--x--x--x----x---x----------|
Bb|--7-7-7-151515-141414-101010-1212-1414---10-10-10-10---10-10-10-10---10---9----------|
 F|-------------------------------------------------------------------------------------|
Bb|-------------------------------------------------------------------------------------|

[Verse 1]
(Guitar 2 Clean with light Delay) 
(where marked)
 C|----------------------0--------------------------------------------------------------|
 G|-------------------------------------------------------------------------------------|
Eb|----------12-12--------------12-12--------------12-12--------------12-12-------------|
Bb|------10--------10-----------------10-------10--------10-------10--------10----------|
 F|--12------------------------------------10-----------------10------------------------|
Bb|-------------------------------------------------------------------------------------|

[Verse 1] 
(Guitar 2) 
(Clean with light Delay) 
(where marked)
 C|----------------------0--------------------------------------------------------------|
 G|-------------------------------------------------------------------------------------|
Eb|----------12-12--------------12-12--------------12-12--------------12-12-------------|
Bb|------10--------10-----------------10-------10--------10-------10--------10--9/10\9--|
 F|---8------------------------------------10-----------------10------------------------|
Bb|-------------------------------------------------------------------------------------|

[Pre-Chorus] 
(Guitar 1)
[Pre-chorus] (x2)
 C|-------------------------------------------------------------------------------------|
 G|-------------------------------------------------------------------------------------|
Eb|-------------------------------------------------------------------------------------|
Bb|--7----------------------------------------------------------------------------------|
 F|--7-7-7-7-7-7-7-7-7-7-7-7-7-10101010------5-5-5-5-5-5-5-5-5-5-5-5-9-9-9-9------------|
Bb|--7-7-7-7-7-7-7-7-7-7-7-7-7-10101010------5-5-5-5-5-5-5-5-5-5-5-5-9-9-9-9------------|
       pmpmpmpmpmpmpmpmpmpmpmpmpmpmpmpm      pmpmpmpmpmpmpmpmpmpmpmpmpmpmpmpm           
                                                                                        
[Pre-Chorus] 
(Guitar 2)                                                                  
 C|------------------------------------------------------------------0------------------|
 G|--------0---------------------------------------0------------------------------------|
Eb|-------------------------------------------------------------------------------------|
Bb|-------------10--------------------------------------10------------------------------|
 F|--12--------------------------------------10-----------------------------------------|
Bb|-------------------------------------------------------------------------------------|

[Pre-Chorus] 
(Guitar 1)
 C|-------------------------------------------------------------------------------------|
 G|-------------------------------------------------------------------------------------|
Eb|-------------------------------------------------------------------------------------|
Bb|-------------------------------------------------------------------------------------|
 F|----3-3-3-3-3-3-3-3-3-3-3-3-5-5-5-5-------3-3-3-3-3-3-3-3--3--2---3--2---------------|
Bb|----3-3-3-3-3-3-3-3-3-3-3-3-5-5-5-5-------3-3-3-3-3-3-3-3--3--2---3--2---------------|
       pmpmpmpmpmpmpmpmpmpmpmpmpmpmpmpm      pmpmpmpmpmpmpmpm                           
                                                                                        
[Pre-Chorus] 
(Guitar 2)                                                                  
 C|-------------------------------------------------------------------------------------|
 G|--------0---------------------------------------0------------------------------------|
Eb|-------------------------------------------------------------------------------------|
Bb|-------------10--------------------------------------10------------------------------|
 F|---8---------------------------------------8-----------------------------------------|
Bb|-------------------------------------------------------------------------------------|

[Chorus 1] 
(Guitar 1)
[Pre-chorus] (x2)
 C|-------------------------------------------------------------------------------------|
 G|-------------------------------------------------------------------------------------|
Eb|-------------------------------------------------------------------------------------|
Bb|--7-7-7-7---------------5-5-5----------------3---------3----3-----3---------x--5-----|
 F|--7-7-7-7---------------5-5-5----------------3---------3----3-----3---------x--5-----|
Bb|--7-7-7-7---------------5-5-5----------------3---------3----3-----3---------x--5-----|
                                                                                        
[Chorus 1] 
(Guitar 2)                                                                 
 C|-------------------------------------------------------------------------------------|
 G|------------8---------------------8--------------------8--------------------8--------|
Eb|-------------------------------------------------------------------------------------|
Bb|--7-10-9-10---10-9-10---7-10-9-10---10-9-10--7-10-9-10---10-9-10--9-10-9-10---10-9-10|
 F|-------------------------------------------------------------------------------------|
Bb|-------------------------------------------------------------------------------------|

[Chorus 2] 
(Guitar 1)
[Pre-chorus] (x2)
 C|-------------------------------------------------------------------------------------|
 G|-------------------------------------------------------------------------------------|
Eb|-------------------------------------------------------------------------------------|
Bb|--7---7---7---7---7-/10---10---10---10----5---5---5---5---5--\3-----3--/5------------|
 F|--7---7---7---7---7-/10---10---10---10----5---5---5---5---5--\3-----3--/5------------|
Bb|--7---7---7---7---7-/10---10---10---10----5---5---5---5---5--\3-----3--/5------------|
                                                                                        
[Chorus 2] 
(Guitar 2)                                                                
 C|------------12-------13------12---------------------12-------10------10-12-----------|
 G|--10---13--------13------13------13------------13--------13------13------------------|
Eb|------------------------------------------12-----------------------------------------|
Bb|-------------------------------------------------------------------------------------|
 F|-------------------------------------------------------------------------------------|
Bb|-------------------------------------------------------------------------------------|

[Post-Chorus] 
(Guitar 1) 
(Distorted)
 C|-------------------------------------------------------------------------------------|
 G|-------------------------------------------------------------------------------------|
Eb|-------------------------------------------------------------------------------------|
Bb|-------------------------------------------------------------------------------------|
 F|--7-7-7--2-2-2--3-3-3--3-3-3-------3-2----7-7-7--2-2-2--3-3-3--3-3-3--2-2---2--------|
Bb|--7-7-7--2-2-2--3-3-3---------2-2---------7-7-7--2-2-2--3-3-3---------2-2---2--------|
                                                                                        
[Post-Chorus] 
(Guitar 2) 
(Aaron)                                                           
 C|-------------------------------------------------------------------------------------|
 G|-101010-181818-171717-131313-1515-1717---202020-181818-171717-1313-1515-17-17--------|
Eb|--x-x-x--x-x-x--x-x-x--x-x-x--x-x--x-x----x-x-x--x-x-x--x-x-x--x-x--x-x--x--x--------|
Bb|--7-7-7-151515-141414-101010-1212-1414---171717-151515-141414-1010-1212-14-14--------|
 F|-------------------------------------------------------------------------------------|
Bb|-------------------------------------------------------------------------------------|

[Post-Chorus] 
(Guitar 1) 
(Distorted)
 C|-------------------------------------------------------------------------------------|
 G|-------------------------------------------------------------------------------------|
Eb|-------------------------------------------------------------------------------9-----|
Bb|-------------------------------------------------------------------------------7-----|
 F|--7-7-7--2-2-2--3-3-3--3-3-3-------3-2----3--3--3--3----3--3--3--3----3---2----7-----|
Bb|--7-7-7--2-2-2--3-3-3---------2-2---------3--3--3--3----3--3--3--3----3---2----7-----|
                                                                                        
[Post-Chorus] 
(Guitar 2)                                                                 
 C|-------------------------------------------------------------------------------------|
 G|-101010-181818-171717-131313-1515-1717---13-13-13-13---13-13-13-13---13--12----------|
Eb|--x-x-x--x-x-x--x-x-x--x-x-x--x-x--x-x----x--x--x--x----x--x--x--x----x---x----------|
Bb|--7-7-7-151515-141414-101010-1212-1414---10-10-10-10---10-10-10-10---10---9----------|
 F|-------------------------------------------------------------------------------------|
Bb|-------------------------------------------------------------------------------------|

[Verse 2] 
(Guitar 2) 
(Clean with light Delay) 
(where marked)
 C|----------------------0--------------------------------------------------------------|
 G|-------------------------------------------------------------------------------------|
Eb|----------12-12--------------12-12--------------12-12--------------12-12-------------|
Bb|------10--------10-----------------10-------10--------10-------10--------10----------|
 F|--12------------------------------------10-----------------10------------------------|
Bb|-------------------------------------------------------------------------------------|

[Verse 2] 
(Guitar 2) 
(Clean with light Delay) 
(where marked)
 C|----------------------0--------------------------------------------------------------|
 G|-------------------------------------------------------------------------------------|
Eb|----------12-12--------------12-12--------------12-12--------------12-12-------------|
Bb|------10--------10-----------------10-------10--------10-------10--------10--9/10\9--|
 F|---8------------------------------------10-----------------10------------------------|
Bb|-------------------------------------------------------------------------------------|

[Pre-Chorus]
(Guitar 1)
[Pre-chorus] (x2)
 C|-------------------------------------------------------------------------------------|
 G|-------------------------------------------------------------------------------------|
Eb|-------------------------------------------------------------------------------------|
Bb|--7----------------------------------------------------------------------------------|
 F|--7-7-7-7-7-7-7-7-7-7-7-7-7-10101010------5-5-5-5-5-5-5-5-5-5-5-5-9-9-9-9------------|
Bb|--7-7-7-7-7-7-7-7-7-7-7-7-7-10101010------5-5-5-5-5-5-5-5-5-5-5-5-9-9-9-9------------|
       pmpmpmpmpmpmpmpmpmpmpmpmpmpmpmpm      pmpmpmpmpmpmpmpmpmpmpmpmpmpmpmpm           
                                                                                        
[Pre-Chorus] 
(Guitar 2)                                                               
 C|------------------------------------------------------------------0------------------|
 G|--------0---------------------------------------0------------------------------------|
Eb|-------------------------------------------------------------------------------------|
Bb|-------------10--------------------------------------10------------------------------|
 F|--12--------------------------------------10-----------------------------------------|
Bb|-------------------------------------------------------------------------------------|

[Pre-Chorus] 
(Guitar 1)
 C|-------------------------------------------------------------------------------------|
 G|-------------------------------------------------------------------------------------|
Eb|-------------------------------------------------------------------------------------|
Bb|-------------------------------------------------------------------------------------|
 F|----3-3-3-3-3-3-3-3-3-3-3-3-5-5-5-5-------3-3-3-3-3-3-3-3--3--2---3--2---------------|
Bb|----3-3-3-3-3-3-3-3-3-3-3-3-5-5-5-5-------3-3-3-3-3-3-3-3--3--2---3--2---------------|
       pmpmpmpmpmpmpmpmpmpmpmpmpmpmpmpm      pmpmpmpmpmpmpmpm                           
                                                                                        
[Pre-Chorus] 
(Guitar 2)                                                              
 C|-------------------------------------------------------------------------------------|
 G|--------0---------------------------------------0------------------------------------|
Eb|-------------------------------------------------------------------------------------|
Bb|-------------10--------------------------------------10------------------------------|
 F|---8---------------------------------------8-----------------------------------------|
Bb|-------------------------------------------------------------------------------------|

[Chorus 1] 
(Guitar 1)
[Pre-chorus] (x2)
 C|-------------------------------------------------------------------------------------|
 G|-------------------------------------------------------------------------------------|
Eb|-------------------------------------------------------------------------------------|
Bb|--7-7-7-7---------------5-5-5----------------3---------3----3-----3---------x--5-----|
 F|--7-7-7-7---------------5-5-5----------------3---------3----3-----3---------x--5-----|
Bb|--7-7-7-7---------------5-5-5----------------3---------3----3-----3---------x--5-----|
                                                                                        
[Chorus 1] 
(Guitar 2)                                                                  
 C|-------------------------------------------------------------------------------------|
 G|------------8---------------------8--------------------8--------------------8--------|
Eb|-------------------------------------------------------------------------------------|
Bb|--7-10-9-10---10-9-10---7-10-9-10---10-9-10--7-10-9-10---10-9-10--9-10-9-10---10-9-10|
 F|-------------------------------------------------------------------------------------|
Bb|-------------------------------------------------------------------------------------|

[Chorus 2] 
(Guitar 1)
[Pre-chorus] (x2)
 C|-------------------------------------------------------------------------------------|
 G|-------------------------------------------------------------------------------------|
Eb|-------------------------------------------------------------------------------------|
Bb|--7---7---7---7---7-/10---10---10---10----5---5---5---5---5--\3-----3--/5------------|
 F|--7---7---7---7---7-/10---10---10---10----5---5---5---5---5--\3-----3--/5------------|
Bb|--7---7---7---7---7-/10---10---10---10----5---5---5---5---5--\3-----3--/5------------|
                                                                                        
[Chorus 2] 
(Guitar 2)                                                                   
 C|------------12-------13------12---------------------12-------10------10-12-----------|
 G|--10---13--------13------13------13------------13--------13------13------------------|
Eb|------------------------------------------12-----------------------------------------|
Bb|-------------------------------------------------------------------------------------|
 F|-------------------------------------------------------------------------------------|
Bb|-------------------------------------------------------------------------------------|

[Bridge]
(Guitar 1)
 C|---------------------------------------------------------------------0---------------|
 G|---------------------------------------------------------------------0---------------|
Eb|-------------------------------------------------------------------------------------|
Bb|--7------7------7------7-------------------------------------------------------------|
 F|--7------7------7------7------------------------------0--2----3--2-------------------|
Bb|--7------7------7------7------10p9--0--7h9--0--7p6----0--2----3--2-------------------|
                                                                                        
[Bridge] 
(Guitar 2)                                                                       
 C|-------------------------------------------------------------------------------------|
 G|-10-----10-----10-----10-------------------------------------------------------------|
Eb|--x------x------x------x-------------------------------------------------------------|
Bb|--7------7------7------7-------------------------------------------------------------|
 F|-------------------------------------------------------------------------------------|
Bb|-------------------------------------------------------------------------------------|

[Bridge] 
(Guitar 1)
 C|---------------------------------------------0---------------------------------------|
 G|---------------------------------------------0---------------------------------------|
Eb|-------------------------------------------------------------------------------------|
Bb|-------------------------------------------------------------------------------------|
 F|--2--3----5--3----------------0--2----3--2-------2--3----5--3------------------------|
Bb|--2--3----5--3----7h9--7p6----0--2----3--2-------2--3----5--3----7p6--7p9------------|

[Bridge] 
(Guitar 1)
 C|-----------------0----------------------------------------------0--------------------|
 G|-----------------0----------------------------------------------0--------------------|
Eb|-------------------------------------------------------------------------------------|
Bb|-------------------------------------------------------------------------------------|
 F|--0--2----3--2-------2--3----5--3----------------0--2----3--2------------------------|
Bb|--0--2----3--2-------2--3----5--3----7h9--7p6----0--2----3--2------------------------|
                                                                                        
[Bridge]
(Guitar 2) 
(STRUM)                                                                
 C|-------------------------------------------------------------------------------------|
 G|-12---------10---9------13---12--15--13-12--13--12---------10---9--------------------|
Eb|--x----------x---x-------x----x---x---x--x---x---x----------x---x--------------------|
Bb|--9----------7---6------10----9--12--10--9--10---9----------7---6--------------------|
 F|-------------------------------------------------------------------------------------|
Bb|-------------------------------------------------------------------------------------|

[Bridge] 
(Guitar 1)
 C|-------------------------------------------------------------------------------------|
 G|-------------------------------------------------------------------------------------|
Eb|-------------------------------------------------------------------------------------|
Bb|-----------------------------------------------------------------x--5----------------|
 F|--2--3----5--3------------5------------7-------------------------x--5----------------|
Bb|--2--3----5--3------------5------------7-------------------------x--5----------------|
                                                                                        
[Bridge] 
(Guitar 2) 
(STRUM)                                                                
 C|------------------------------------------0------------------------------------------|
 G|----13-----------8-------12------------------0---------------------------------------|
Eb|-----x-----------x--------x---------------------5------------------------------------|
Bb|----10-----------5--------9------------7---------------------------------------------|
 F|-------------------------------------------------------------------------------------|
Bb|-------------------------------------------------------------------------------------|

[Chorus 3] 
(Guitar 1)
[Pre-chorus] (x3)
 C|-------------------------------------------------------------------------------------|
 G|-------------------------------------------------------------------------------------|
Eb|-------------------------------------------------------------------------------------|
Bb|--7-7-7-7---------------5-5-5----------------3---------3----3-----3---------x--5-----|
 F|--7-7-7-7---------------5-5-5----------------3---------3----3-----3---------x--5-----|
Bb|--7-7-7-7---------------5-5-5----------------3---------3----3-----3---------x--5-----|
                                                                                        
[Chorus] 
(Guitar 2)                                                                       
 C|---------------------------------------------------------------------------12--------|
 G|---------------------12-12-----------12-12--13---------12--13--15--13--15------------|
Eb|----------14-14-12-12-----12-12-14-14------------------------------------------------|
Bb|-------------------------------------------------------------------------------------|
 F|-------------------------------------------------------------------------------------|
Bb|-------------------------------------------------------------------------------------|

[Chorus 2] 
(Guitar 1)
[Pre-chorus] (x2)
 C|-------------------------------------------------------------------------------------|
 G|-------------------------------------------------------------------------------------|
Eb|-------------------------------------------------------------------------------------|
Bb|--7---7---7---7---7-/10---10---10---10----5---5---5---5---5--\3-----3--/5------------|
 F|--7---7---7---7---7-/10---10---10---10----5---5---5---5---5--\3-----3--/5------------|
Bb|--7---7---7---7---7-/10---10---10---10----5---5---5---5---5--\3-----3--/5------------|
                                                                                        
[Chorus 2] 
(Guitar 2)                                                                      
 C|------------12-------13------12---------------------12-------10------10-12-----------|
 G|--10---13--------13------13------13------------13--------13------13------------------|
Eb|------------------------------------------12-----------------------------------------|
Bb|-------------------------------------------------------------------------------------|
 F|-------------------------------------------------------------------------------------|
Bb|-------------------------------------------------------------------------------------|

[Outro 1] 
(Guitars 1 & 2)
(Distorted) 
[Outro 1] (x2)
 C|-------------------------------------------------------------------------------------|
 G|-------------------------------------------------------------------------------------|
Eb|------------------------------x-x--x-------------------------------------------------|
Bb|------------------------------x-x--x-------------------------------------------------|
 F|--7------2------3------2------x-x--x------7------2------3------2------3-2------------|
Bb|--7------2------3------2------x-x--x------7------2------3------2----------5-2--------|

[Outro 2] 
(Guitars 1 & 2)
(Distorted)
 C|-------------------------------------------------------------------------------------|
 G|-------------------------------------------------------------------------------------|
Eb|-------------------------------------------------------------------------------------|
Bb|-------------------------------------------------------------------------------------|
 F|--7--7--7--7-------7--7--7-----------------------------------------------------------|
Bb|--7--7--7--7-------7--7--7-----------------------------------------------------------|

4. Song: give me a sign

Guitar 1 Rhythmic (C# G# C# F# A# D#)
Guitar 2 Lead     (C# G# C# F# A# D#)
Guitar 3 Mixed    (C# G# C# F# A# D#)

[Intro]
(Guitar 1)
D#|-----------------------------------------------|
A#|-----------------------------------------------|
F#|-----------------------------------------------|
C#|-2--2--2--2--7--7--7--7--7--7--7--7--7--7---9~-|
G#|-2--2--2--2--5--5--5--5--7--7--7--7--7--7---9~-|
C#|-2--2--2--2--5--5--5--5--7--7--7--7--7--7---9~-|

(Guitar 2)
D#|-----------------------------------------------|
A#|-------7--8---------7--8--------------------7~-|
F#|-9-----------9-7----------------7~~~-9~~~------|
C#|----9------------9--------10~~~----------------|
G#|-----------------------------------------------|
C#|-----------------------------------------------|

(Guitar 3)
D#|-----------------------------------------------|
A#|-------7--8---------7--8--------------------7~-|
F#|-9-----------9-7-------------------------------|
C#|----9------------9--------10~~~----------------|
G#|--------------------------------9~~~-10~~------|
C#|-----------------------------------------------|

(Guitar 1)
D#|-------------------------------------------------|
A#|-------------------------------------------------|
F#|-------------------------------------------------|
C#|-10-10-10-10-10-10-10-10-5--5--5--5--7--7--------|
G#|-10-10-10-10-10-10-10-10-5--5--5--5--5--5--------|
C#|-10-10-10-10-10-10-10-10-5--5--5--5--5--5--4h5p4-|

(Guitar 2)
D#|-------------------------------------------------|
A#|-8-----------------------------7--8--------7h8p7-|
F#|-------------9*----------------------------------|
C#|----10-9--10----10-9--10----9--------7--9--------|
G#|-------------------------10----------------------|
C#|-------------------------------------------------|

(Guitar 3)
D#|-------------------------------------------------|
A#|-8-----------------------------7--8--------7h8p7-|
F#|-------------9-----------------------------------|
C#|----10-9--10----10-9--10----9--------7--9--------|
G#|-------------------------10----------------------|
C#|-------------------------------------------------|

[Verse 1]
(Guitar 1 & 2)
D#|----------------------|
A#|-7~~~~~~~~~~~~~~~~~~~~|
F#|-6~~~~~~~~~~~~~~~~~~~~|
C#|-5~~~~~~~~~~~~~~~~~~~~|
G#|-5~~~~~~~~~~~~~~~~~~~~|
C#|-5~~~~~~~~~~~~~~~~~~~~|

(Guitar 3) 
(Acoustic)
(I’m not good at acoustic guitar so bare with me here)
D#|--------------------2~-2~-2~-2-2~-2~~~--------------------------------------|
A#|-5~-5~-5~-5-5~-5~~~-x~-x~-x~-x-x~-x~~~-5~-5~-5~-5-5~-5~~~-5~-5~-5~-5-5~-5~~-|
F#|-7~-7~-7~-7-7~-7~~~-x~-x~-x~-x-x~-x~~~-x~-x~-x~-x-x~-x~~~-x~-x~-x~-x-x~-x~~-|
C#|-5~-5~-5~-5-5~-5~~~-2~-2~-2~-2-2~-2~~~-7~-7~-7~-7-7~-7~~~-5~-5~-5~-5-5~-5~~-|
G#|--------------------2~-2~-2~-2-2~-2~~~-7~-7~-7~-7-7~-7~~~-5~-5~-5~-5-5~-5~~-|
C#|----------------------------------------------------------------------------|

(Guitar 2)
D#|---------------------------------------------------3~~~~----------------------|
A#|---------------3~~~~-------------5~~~~---------5~~--------------------5~~-7-8-|
F#|-----------------------------4~~-----------4~~--------------------4~~---------|
C#|-----------5~~-----------4~~-----------2~~--------------------5~~-------------|
G#|---------------------2~~----------------------------------5~~-----------------|
C#|------------------------------------------------------------------------------|

(Guitar 3)
D#|--------------------2~-2~-2~-2-2~-2~~~---------------------------------------|
A#|-5~-5~-5~-5-5~-5~~~-x~-x~-x~-x-x~-x~~~-5~-5~-5~-5-5~-5~~~-5~-5~-5~-5-5~-5----|
F#|-7~-7~-7~-7-7~-7~~~-x~-x~-x~-x-x~-x~~~-x~-x~-x~-x-x~-x~~~-x~-x~-x~-x-x~-x----|
C#|-5~-5~-5~-5-5~-5~~~-2~-2~-2~-2-2~-2~~~-7~-7~-7~-7-7~-7~~~-5~-5~-5~-5-5~-5----|
G#|--------------------2~-2~-2~-2-2~-2~~~-7~-7~-7~-7-7~-7~~~-5~-5~-5~-5-5~-5----|
C#|-----------------------------------------------------------------------------|

[Chorus]
(Guitar 1 & 3)
D#|---------------------------------------------------------------|
A#|---------------------------------------------------------------|
F#|---------------------------------5---5---5---5---5---5---5---5-|
C#|-2---2---2---2---0---0---0---0---5---5---5---5---5---5---5---5-|
G#|-2---2---2---2---0---0---0---0---3---3---3---3---3---3---3---3-|
C#v-2---2---2---2---0---0---0---0---------------------------------|

(Guitar 2)
D#|-------------------------------------------------10----------10-|
A#|-----12--10--12~~~---12--10----------12--10--12------12--10-----|
F#|-----------------------------12~~~------------------------------|
C#|----------------------------------------------------------------|
G#|----------------------------------------------------------------|
C#|----------------------------------------------------------------|

(Guitar 1 & 3)
D#|---------------------------------------------------------------|
A#|---------------------------------------------------------------|
F#|---------------------------------------------------------------|
C#|-5---5---5---5---5---5---5---5---0---0---0---0---0---0---1---1-|
G#|-5---5---5---5---5---5---5---5---0---0---0---0---0---0---1---1-|
C#|-5---5---5---5---5---5---5---5---0---0---0---0---0---0---1---1-|

(Guitar 2)
D#|-------------10--13--13-13-----------------------------------------------|
A#|-----12--10----------------13--13-12-10--10--------------------10--10-10-|
F#|-12------------------------------------------12--11--11--12-12-----------|
C#|-------------------------------------------------------------------------|
G#|-------------------------------------------------------------------------|
C#|-------------------------------------------------------------------------|

(Guitar 1 & 3)
D#|---------------------------------------------------------------|
A#|---------------------------------------------------------------|
F#|---------------------------------5---5---5---5---5---5---5---5-|
C#|-2---2---2---2---0---0---0---0---5---5---5---5---5---5---5---5-|
G#|-2---2---2---2---0---0---0---0---3---3---3---3---3---3---3---3-|
C#|-2---2---2---2---0---0---0---0---------------------------------|

(Guitar 2)
D#|-------------------------------------------------10-------------|
A#|-----12--10--12~~~---12--10----------12--10--12------12--10--12-|
F#|-----------------------------12~~~------------------------------|
C#|----------------------------------------------------------------|
G#|----------------------------------------------------------------|
C#|----------------------------------------------------------------|

(Guitar 1 & 3)
D#|---------------------------------------------------------------|
A#|---------------------------------------------------------------|
F#|---------------------------------------------------------------|
C#|-5---5---5---5---5---5---5---5---0---0---0---0---0---0---1---1-|
G#|-5---5---5---5---5---5---5---5---0---0---0---0---0---0---1---1-|
C#|-5---5---5---5---5---5---5---5---0---0---0---0---0---0---1---1-|

(Guitar 2)
D#|-------------10----------------------------------------------------------|
A#|-----12--10------10--10-10-13--13-12-10--10--------------------10--10-10-|
F#|-12------------------------------------------12--11--11--12-12-----------|
C#|-------------------------------------------------------------------------|
G#|-------------------------------------------------------------------------|
C#|-------------------------------------------------------------------------|

(Guitar 1 & 3)
D#|---------------------------------------------------------------|
A#|---------------------------------------------------------------|
F#|---------------------------------------------5~~~~~~-5---5---5-|
C#|-2---2---2---2---0---0---0---0---5---5-------5~~~~~~-5---5---5-|
G#|-2---2---2---2---0---0---0---0---5---5-------3~~~~~~-3---3---3-|
C#|-2---2---2---2---0---0---0---0---5---5-------------------------|

(Guitar 2)
D#|---------------------------------------------------------------|
A#|-----12--10--12~~~---12--10----------12--10--------------------|
F#|-----------------------------12~~~-----------12~~~~~~~~~~~~~~~-|
C#|---------------------------------------------------------------|
G#|---------------------------------------------------------------|
C#|---------------------------------------------------------------|

(Guitar 1 & 3)
D#|---------------------------------------------------------------|
A#|---------------------------------------------------------------|
F#|---------------------------------------------------------------|
C#|-5---5---5---5---5---5---5---5---0---0---0---0---0---0---0---0-|
G#|-5---5---5---5---5---5---5---5---0---0---0---0---0---0---0---0-|
C#|-5---5---5---5---5---5---5---5---0---0---0---0---0---0---0---0-|

(Guitar 2)
D#|--------------------------------------------------------------|
A#|-----------------------------------------------10-------------|
F#|-----12--11--12~~~---12--11--12~~~---12-11-12------12--11--12-|
C#|--------------------------------------------------------------|
G#|--------------------------------------------------------------|
C#|--------------------------------------------------------------|

[Break Off]
(Guitar 1)
D#|-----------------------------------------------|
A#|-----------------------------------------------|
F#|-----------------------------------------------|
C#|-2--2--2--2--7--7--7--7--7--7--7--7--7--7---9~-|
G#|-2--2--2--2--5--5--5--5--7--7--7--7--7--7---9~-|
C#|-2--2--2--2--5--5--5--5--7--7--7--7--7--7---9~-|

(Guitar 2)
D#|-----------------------------------------------|
A#|-------7--8---------7--8--------------------7~-|
F#|-9-----------9-7----------------7~~~-9~~~------|
C#|----9------------9--------10~~~----------------|
G#|-----------------------------------------------|
C#|-----------------------------------------------|

(Guitar 3)
D#|-----------------------------------------------|
A#|-------7--8---------7--8--------------------7~-|
F#|-9-----------9-7-------------------------------|
C#|----9------------9--------10~~~----------------|
G#|--------------------------------9~~~-10~~------|
C#|-----------------------------------------------|

(Guitar 1)
D#|-------------------------------------------------|
A#|-------------------------------------------------|
F#|-------------------------------------------------|
C#|-10-10-10-10-10-10-10-10-5--5--5--5--7--7--------|
G#|-10-10-10-10-10-10-10-10-5--5--5--5--5--5--------|
C#v-10-10-10-10-10-10-10-10-5--5--5--5--5--5--4h5p4-|

(Guitar 2)
D#|-------------------------------------------------|
A#|-8-----------------------------7--8--------7h8p7-|
F#|-------------9*----------------------------------|
C#|----10-9--10----10-9--10----9--------7--9--------|
G#|-------------------------10----------------------|
C#|-------------------------------------------------|

(Guitar 3)
D#|-------------------------------------------------|
A#|-8-----------------------------7--8--------7h8p7-|
F#|-------------9-----------------------------------|
C#|----10-9--10----10-9--10----9--------7--9--------|
G#|-------------------------10----------------------|
C#|-------------------------------------------------|

[Verse 2]
(Guitar 1)
D#|----------------------|
A#|-7~~~~~~~~~~~~~~~~~~~~|
F#|-6~~~~~~~~~~~~~~~~~~~~|
C#|-5~~~~~~~~~~~~~~~~~~~~|
G#|-5~~~~~~~~~~~~~~~~~~~~|
C#|-5~~~~~~~~~~~~~~~~~~~~|

(Guitar 2)
D#|------------------------------------------------------------------------------|
A#|---------------3~~~~-------------3~~~~-------------1~~~~--------------3~~-----|
F#|-----------------------------4~~---------------0~~----------------4~~---------|
C#|-----------5~~-----------4~~---------------2~~----------------5~~---------2-5-|
G#|---------------------2~~---------------0~~----------------3~~-----------------|
C#|------------------------------------------------------------------------------|

(Guitar 3)
D#--------------------2~-2~-2~-2-2~-2~~~--------------------------------------|
A#-5~-5~-5~-5-5~-5~~~-x~-x~-x~-x-x~-x~~~-5~-5~-5~-5-5~-5~~~-5~-5~-5~-5-5~-5~~-|
F#-7~-7~-7~-7-7~-7~~~-x~-x~-x~-x-x~-x~~~-x~-x~-x~-x-x~-x~~~-x~-x~-x~-x-x~-x~~-|
C#-5~-5~-5~-5-5~-5~~~-2~-2~-2~-2-2~-2~~~-7~-7~-7~-7-7~-7~~~-5~-5~-5~-5-5~-5~~-|
G#--------------------2~-2~-2~-2-2~-2~~~-7~-7~-7~-7-7~-7~~~-5~-5~-5~-5-5~-5~~-|
C#----------------------------------------------------------------------------|

(Guitar 2)
D#|---------------------------------------------------3~~~~----------------------|
A#|---------------3~~~~-------------5~~~~---------5~~--------------------5~~-7-8-|
F#|-----------------------------4~~-----------4~~--------------------4~~---------|
C#|-----------5~~-----------4~~-----------2~~--------------------5~~-------------|
G#|---------------------2~~----------------------------------5~~-----------------|
C#|------------------------------------------------------------------------------|

(Guitar 3)
D#|--------------------2~-2~-2~-2-2~-2~~~--------------------------------------|
A#|-5~-5~-5~-5-5~-5~~~-x~-x~-x~-x-x~-x~~~-5~-5~-5~-5-5~-5~~~-5~-5~-5~-5-5~-5~~-|
F#|-7~-7~-7~-7-7~-7~~~-x~-x~-x~-x-x~-x~~~-x~-x~-x~-x-x~-x~~~-x~-x~-x~-x-x~-x~~-|
C#|-5~-5~-5~-5-5~-5~~~-2~-2~-2~-2-2~-2~~~-7~-7~-7~-7-7~-7~~~-5~-5~-5~-5-5~-5~~-|
G#|--------------------2~-2~-2~-2-2~-2~~~-7~-7~-7~-7-7~-7~~~-5~-5~-5~-5-5~-5~~-|
C#|----------------------------------------------------------------------------|

[Chorus]
(Guitar 1 & 3)
D#|---------------------------------------------------------------|
A#|---------------------------------------------------------------|
F#|---------------------------------5---5---5---5---5---5---5---5-|
C#|-2---2---2---2---0---0---0---0---5---5---5---5---5---5---5---5-|
G#|-2---2---2---2---0---0---0---0---3---3---3---3---3---3---3---3-|
C#|-2---2---2---2---0---0---0---0---------------------------------|

(Guitar 2)
D#|-------------------------------------------------10----------10-|
A#|-----12--10--12~~~---12--10----------12--10--12------12--10-----|
F#|-----------------------------12~~~------------------------------|
C#|----------------------------------------------------------------|
G#|----------------------------------------------------------------|
C#|----------------------------------------------------------------|

(Guitar 1 & 3)
D#|---------------------------------------------------------------|
A#|---------------------------------------------------------------|
F#|---------------------------------------------------------------|
C#|-5---5---5---5---5---5---5---5---0---0---0---0---0---0---1---1-|
G#|-5---5---5---5---5---5---5---5---0---0---0---0---0---0---1---1-|
C#|-5---5---5---5---5---5---5---5---0---0---0---0---0---0---1---1-|

(Guitar 2)
D#|-------------10--13--13-13-----------------------------------------------|
A#|-----12--10----------------13--13-12-10--10--------------------10--10-10-|
F#|-12------------------------------------------12--11--11--12-12-----------|
C#|-------------------------------------------------------------------------|
G#|-------------------------------------------------------------------------|
C#|-------------------------------------------------------------------------|

(Guitar 1 & 3)
D#|---------------------------------------------------------------|
A#|---------------------------------------------------------------|
F#|---------------------------------5---5---5---5---5---5---5---5-|
C#|-2---2---2---2---0---0---0---0---5---5---5---5---5---5---5---5-|
G#|-2---2---2---2---0---0---0---0---3---3---3---3---3---3---3---3-|
C#|-2---2---2---2---0---0---0---0---------------------------------|

(Guitar 2)
D#|-------------------------------------------------10-------------|
A#|-----12--10--12~~~---12--10----------12--10--12------12--10--12-|
F#|-----------------------------12~~~------------------------------|
C#|----------------------------------------------------------------|
G#|----------------------------------------------------------------|
C#|----------------------------------------------------------------|

(Guitar 1 & 3)
D#|---------------------------------------------------------------|
A#|---------------------------------------------------------------|
F#|---------------------------------------------------------------|
C#|-5---5---5---5---5---5---5---5---0---0---0---0---0---0---1---1-|
G#|-5---5---5---5---5---5---5---5---0---0---0---0---0---0---1---1-|
C#|-5---5---5---5---5---5---5---5---0---0---0---0---0---0---1---1-|

(Guitar 2)
D#|-------------10----------------------------------------------------------|
A#|-----12--10------10--10-10-13--13-12-10--10--------------------10--10-10-|
F#|-12------------------------------------------12--11--11--12-12-----------|
C#|-------------------------------------------------------------------------|
G#|-------------------------------------------------------------------------|
C#|-------------------------------------------------------------------------|

(Guitar 1 & 3)
D#|---------------------------------------------------------------|
A#|---------------------------------------------------------------|
F#|---------------------------------------------5~~~~~~-5---5---5-|
C#|-2---2---2---2---0---0---0---0---5---5-------5~~~~~~-5---5---5-|
G#|-2---2---2---2---0---0---0---0---5---5-------3~~~~~~-3---3---3-|
C#|-2---2---2---2---0---0---0---0---5---5-------------------------|

(Guitar 2)
D#|---------------------------------------------------------------|
A#|-----12--10--12~~~---12--10----------12--10--------------------|
F#|-----------------------------12~~~-----------12~~~~~~~~~~~~~~~-|
C#|---------------------------------------------------------------|
G#|---------------------------------------------------------------|
C#v---------------------------------------------------------------|

(Guitar 1 & 3)
D#|---------------------------------------------------------------|
A#|---------------------------------------------------------------|
F#|---------------------------------------------------------------|
C#|-5---5---5---5---5---5---5---5---0---0---0---0---0---0---0---0-|
G#|-5---5---5---5---5---5---5---5---0---0---0---0---0---0---0---0-|
C#|-5---5---5---5---5---5---5---5---0---0---0---0---0---0---0---0-|

(Guitar 2)
D#|--------------------------------------------------------------|
A#|-----------------------------------------------10-------------|
F#|-----12--11--12~~~---12--11--12~~~---12-11-12------12--11--12-|
C#|--------------------------------------------------------------|
G#|--------------------------------------------------------------|
C#|--------------------------------------------------------------|

[Interlude]
(Guitar 1)
D#|---------------------------------------------------------------|
A#|---------------------------------------------------------------|
F#|-5---5---5---5---5---5-----------------------------------------|
C#|-5---5---5---5---5---5---0---0---2---2---2---2---2---2---0---0-|
G#|-3---3---3---3---3---3---0---0---2---2---2---2---2---2---0---0-|
C#|-------------------------0---0---2---2---2---2---2---2---0---0-|

(Guitar 2)
D#|-------------------------------------------------------------11~~~-|
A#|-----12--10--12~~~---12--10----------12--10--12~~~---12--10--------|
F#|-----------------------------12~~~---------------------------------|
C#|-------------------------------------------------------------------|
G#|-------------------------------------------------------------------|
C#|-------------------------------------------------------------------|

(Guitar 1)
D#|---------------------------------------------------------------|
A#|---------------------------------------------------------------|
F#|-5---5---5---5---5---5---5---5---------------------------------|
C#|-5---5---5---5---5---5---5---5---5---5--------0~~~~~-0---0---0-|
G#|-3---3---3---3---3---3---3---3---5---5--------0~~~~~-0---0---0-|
C#v---------------------------------5---5--------0~~~~~-0---0---0-|

(Guitar 2)
D#|-------------------------------------------------------------------|
A#|-----12--10--12~~~---12--10------12--12-------10~~~~---------------|
F#|-----------------------------12~---------------------12--11--12~~~-|
C#|-------------------------------------------------------------------|
G#|-------------------------------------------------------------------|
C#|-------------------------------------------------------------------|

(Guitar 1)
D#|---------------------------------------------------------------|
A#|---------------------------------------------------------------|
F#|-5---5---5---5---5---5-----------------------------------------|
C#|-5---5---5---5---5---5---0---0---2---2---2---2---2---2---0---0-|
G#|-3---3---3---3---3---3---0---0---2---2---2---2---2---2---0---0-|
C#|-------------------------0---0---2---2---2---2---2---2---0---0-|

(Guitar 2)
D#|-------------------------------------------------------------11~~~-|
A#|-----12--10--12~~~---12--10----------12--10--12~~~---12--10--------|
F#|-----------------------------12~~~---------------------------------|
C#|-------------------------------------------------------------------|
G#|-------------------------------------------------------------------|
C#|-------------------------------------------------------------------|

(Guitar 3)
D#|-------------------------------------------------------------------|
A#|-------------------------------------------------------------------|
F#|-----12--11--12~~~---12--11----------12--11--12~~~---12--11--------|
C#|-----------------------------12~~~---------------------------12~~~-|
G#|-------------------------------------------------------------------|
C#|-------------------------------------------------------------------|

(Guitar 1)
D#|---------------------------------------------------------------|
A#|---------------------------------------------------------------|
F#|-5---5---5---5---5---5---5---5---------------------------------|
C#|-5---5---5---5---5---5---5---5---5---5--------0~~~~~-0---0---0-|
G#|-3---3---3---3---3---3---3---3---5---5--------0~~~~~-0---0---0-|
C#|---------------------------------5---5--------0~~~~~-0---0---0-|

(Guitar 2)
D#|-----------------------------------------------------------------|
A#|-----12--10--12~~~---12--10------12--12-------10~~~~-------------|
F#|-----------------------------12~---------------------12--11--12~-|
C#|-----------------------------------------------------------------|
G#|-----------------------------------------------------------------|
C#|-----------------------------------------------------------------|

(Guitar 3)
D#|-----------------------------------------------------------------|
A#|-----------------------------------------------------------------|
F#|-----12--11--12~~~---12--11------12--12-------11~~~~-12--11--12~-|
C#|-----------------------------12~---------------------------------|
G#|-----------------------------------------------------------------|
C#|-----------------------------------------------------------------|

(All Guitars)
D#|--------------------------------------|
A#|--------------------------------------|
F#|-5~~~~~~~~~~~~~~~~~~~~~~~~------------|
C#|-5~~~~~~~~~~~~~~~~~~~~~~~~-x--x--x--x-|
G#|-3~~~~~~~~~~~~~~~~~~~~~~~~-x--x--x--x-|
C#|---------------------------x--x--x--x-|

[Chorus]
(Guitar 1 & 3)
D#|---------------------------------------------------------------|
A#|---------------------------------------------------------------|
F#|---------------------------------5---5---5---5---5---5---5---5-|
C#|-2---2---2---2---0---0---0---0---5---5---5---5---5---5---5---5-|
G#|-2---2---2---2---0---0---0---0---3---3---3---3---3---3---3---3-|
C#|-2---2---2---2---0---0---0---0---------------------------------|

(Guitar 2)
D#|-------------------------------------------------10----------10-|
A#|-----12--10--12~~~---12--10----------12--10--12------12--10-----|
F#|-----------------------------12~~~------------------------------|
C#|----------------------------------------------------------------|
G#|----------------------------------------------------------------|
C#|----------------------------------------------------------------|

(Guitar 1 & 3)
D#|---------------------------------------------------------------|
A#|---------------------------------------------------------------|
F#|---------------------------------------------------------------|
C#|-5---5---5---5---5---5---5---5---0---0---0---0---0---0---1---1-|
G#|-5---5---5---5---5---5---5---5---0---0---0---0---0---0---1---1-|
C#|-5---5---5---5---5---5---5---5---0---0---0---0---0---0---1---1-|

(Guitar 2)
D#|-------------10--13--13-13-----------------------------------------------|
A#|-----12--10----------------13--13-12-10--10--------------------10--10-10-|
F#|-12------------------------------------------12--11--11--12-12-----------|
C#|-------------------------------------------------------------------------|
G#|-------------------------------------------------------------------------|
C#|-------------------------------------------------------------------------|

(Guitar 1 & 3)
D#|---------------------------------------------------------------|
A#|---------------------------------------------------------------|
F#|---------------------------------5---5---5---5---5---5---5---5-|
C#|-2---2---2---2---0---0---0---0---5---5---5---5---5---5---5---5-|
G#|-2---2---2---2---0---0---0---0---3---3---3---3---3---3---3---3-|
C#|-2---2---2---2---0---0---0---0---------------------------------|

(Guitar 2)
D#|-------------------------------------------------10-------------|
A#|-----12--10--12~~~---12--10----------12--10--12------12--10--12-|
F#|-----------------------------12~~~------------------------------|
C#|----------------------------------------------------------------|
G#|----------------------------------------------------------------|
C#|----------------------------------------------------------------|

(Guitar 1 & 3)
D#|---------------------------------------------------------------|
A#|---------------------------------------------------------------|
F#|---------------------------------------------------------------|
C#|-5---5---5---5---5---5---5---5---0---0---0---0---0---0---1---1-|
G#|-5---5---5---5---5---5---5---5---0---0---0---0---0---0---1---1-|
C#|-5---5---5---5---5---5---5---5---0---0---0---0---0---0---1---1-|

(Guitar 2)
D#|-------------10----------------------------------------------------------|
A#|-----12--10------10--10-10-13--13-12-10--10--------------------10--10-10-|
F#|-12------------------------------------------12--11--11--12-12-----------|
C#|-------------------------------------------------------------------------|
G#|-------------------------------------------------------------------------|
C#|-------------------------------------------------------------------------|

(Guitar 1 & 3)
D#|-----------------------------------------------------------------------|
A#|-----------------------------------------------------------------------|
F#|---------------------------------------------5~~~~~~~~~~~~~~~~~~~~~~~~-|
C#|-2---2---2---2---0---0---0---0---5---5-------5~~~~~~~~~~~~~~~~~~~~~~~~-|
G#|-2---2---2---2---0---0---0---0---5---5-------3~~~~~~~~~~~~~~~~~~~~~~~~-|
C#|-2---2---2---2---0---0---0---0---5---5---------------------------------|

(Guitar 2)
D#|-----------------------------------------------------------------------|
A#|-----12--10--12~~~---12--10----------10--12--13~~~~~~~~~~~~~~~~~~~~~~~-|
F#|-----------------------------12~~~-------------------------------------|
C#|-----------------------------------------------------------------------|
G#|-----------------------------------------------------------------------|
C#|-----------------------------------------------------------------------|

[Bridge]
(Guitar 1)
D#|------------------------------------------------|
A#|------------------------------------------------|
F#|------------------------------------------------|
C#|------------------------------------------------|
G#|------------------------------------------------|
C#|-5--5--5--5--5--5--5--5--0--0--0--0--0--0--1--1-|
pm .  .  .  .  .  .  .  .  .  .  .  .  .  .  .  .

(Guitar 2)
D#|-------------------------------------------------|
A#|-12-12-12-12-12-12-12-12-10-10-10-10-10-10-10-10-|
F#|-12-12-12-12-12-12-12-12-12-12-12-12-11-11-11-11-|
C#|-------------------------------------------------|
G#|-------------------------------------------------|
C#|-------------------------------------------------|

(Guitar 1)
D#|------------------------------------------------|
A#|------------------------------------------------|
F#|-------------------------5--5--5--5--5--5--5--5-|
C#|-------------------------5--5--5--5--5--5--5--5-|
G#|-------------------------3--3--3--3--3--3--3--3-|
C#|-2--2--2--2--2--2--2--2-------------------------|
pm .  .  .  .  .  .  .  .     .  .  .  .  .

(Guitar 2)
D#|-13-13-13-13-13-13-13-13-------------------------|
A#|-x--x--x--x--x--x--x--x--13-13-13-13-13-13-13-13-|
F#|-9--9--9--9--9--9--9--9--x--x--x--x--x--x--x--x--|
C#|-------------------------12-12-12-12-12-12-12-12-|
G#|-------------------------------------------------|
C#|-------------------------------------------------|

(Guitar 1)
D#|------------------------------------------------|
A#|------------------------------------------------|
F#|------------------------------------------------|
C#|-5--5--5--5--5--5--5--5--0--0--0--0--0--0--1--1-|
G#|-5--5--5--5--5--5--5--5--0--0--0--0--0--0--1--1-|
C#|-5--5--5--5--5--5--5--5--0--0--0--0--0--0--1--1-|

(Guitar 2)
D#|-------------------------------------------------|
A#|----------------------------------------13-13-13-|
F#|-12-12-12-12-12-14-14-14-14-14-14-14-14----------|
C#|-------------------------------------------------|
G#|-------------------------------------------------|
C#|-------------------------------------------------|

(Guitar 3)
D#|-------------------------------------------------|
A#|-------------------------------------------------|
F#|-12-12-12-12-12-12-12-12-11-11-11-11-11-11-11-11-|
C#|-------------------------------------------------|
G#|-------------------------------------------------|
C#|-------------------------------------------------|

(Guitar 1)
D#|------------------------------------------------|
A#|------------------------------------------------|
F#|-------------------------5--5--5--5--5--5--5--5-|
C#|-2--2--2--2--2--2--2--2--5--5--5--5--5--5--5--5-|
G#|-2--2--2--2--2--2--2--2--3--3--3--3--3--3--3--3-|
C#|-2--2--2--2--2--2--2--2-------------------------|

(Guitar 2)
D#|-------------------------------------------------|
A#|-------------------------13-13-13-13-13-12-12-12-|
F#|-12-12-12-12-12-14-14-14-------------------------|
C#|-------------------------------------------------|
G#|-------------------------------------------------|
C#|-------------------------------------------------|

(Guitar 3)
D#|-------------------------------------------------|
A#|-------------------------------------------------|
F#|-9--9--9--9--9--9--9--9--------------------------|
C#|-------------------------12-12-12-12-12-12-12-12-|
G#|-------------------------------------------------|
C#|-------------------------------------------------|

(Guitar 1)
D#|------------------------------------------------|
A#|------------------------------------------------|
F#|------------------------------------------------|
C#|-5--5--5--5--5--5--5--5--0--0--0--0--0--0--1--1-|
G#|-5--5--5--5--5--5--5--5--0--0--0--0--0--0--1--1-|
C#|-5--5--5--5--5--5--5--5--0--0--0--0--0--0--1--1-|

(Guitar 2)
D#|-------------------------------------------------|
A#|----------------------------------------13-13-13-|
F#|-12-12-12-12-12-14-14-14-14-14-14-14-14----------|
C#|-------------------------------------------------|
G#|-------------------------------------------------|
C#|-------------------------------------------------|

(Guitar 3)
D#|-------------------------------------------------|
A#|-------------------------------------------------|
F#|-12-12-12-12-12-12-12-12-11-11-11-11-11-11-11-11-|
C#|-------------------------------------------------|
G#|-------------------------------------------------|
C#|-------------------------------------------------|

(Guitar 1)
D#|------------------------------------------------|
A#|------------------------------------------------|
F#|-------------------------5--5--5--5--5--5--5--5-|
C#|-2--2--2--2--2--2--2--2--5--5--5--5--5--5--5--5-|
G#|-2--2--2--2--2--2--2--2--3--3--3--3--3--3--3--3-|
C#|-2--2--2--2--2--2--2--2-------------------------|

(Guitar 2)
D#|-------------------------------------------------|
A#|-------------------------13-13-13-13-13-12-12-12-|
F#|-12-12-12-12-12-14-14-14-------------------------|
C#|-------------------------------------------------|
G#|-------------------------------------------------|
C#|-------------------------------------------------|

(Guitar 3)
D#|-------------------------------------------------|
A#|-------------------------------------------------|
F#|-9--9--9--9--9--9--9--9--------------------------|
C#|-------------------------12-12-12-12-12-12-12-12-|
G#|-------------------------------------------------|
C#|-------------------------------------------------|

[Outro]
(Guitar 1 & 3)
D#|--------------------------------------------------------------|
A#|--------------------------------------------------------------|
F#|------------------------------------------5~~~~~~~~~~~~~~~~~~-|
C#|-2--2--x--x---x--0--0--x--x---x--5--5-----5~~~~~~~~~~~~~~~~~~-|
G#|-2--2--x--x---x--0--0--x--x---x--5--5-----3~~~~~~~~~~~~~~~~~~-|
C#|-2--2--x--x---x--0--0--x--x---x--5--5-------------------------|

(Guitar 2)
D#|--------------------------------------------------------------|
A#|--------------------------------------------------------------|
F#|-11-12-----------12-14-----------11-12-11--5~~~~~~~~~~~~~~~~~-|
C#|-------x--x---x--------x--x---x------------5~~~~~~~~~~~~~~~~~-|
G#|-------x--x---x--------x--x---x------------3~~~~~~~~~~~~~~~~~-|
C#|-------x--x---x--------x--x---x-------------------------------|

5. Song: hopeless
Tuning C G C F A D

[Intro]
(Guitars 1 & 2) 
(Distorted) 
(x2)
D|---------------------------------------------------------------------|
A|---------------------------------------------------------------------|
F|---------------------------------------------------------------------|
C|---------------------------------------------------------------------|
G|---------------------------------------------------------------------|
C|--0-1-0-3-0-10-7-0-11-8-0-7-0-8-7\3--0-1-0-3-0-10-7-0-11-8-0-7--1----|

[Verse 1] 
(Guitars 1 & 2)
D|---------------------------------------------------------------------|
A|---------------------------------------------------------------------|
F|---------------------------------------------------------------------|
C|--0-0----------------------------------------------------------------|
G|--0-0----------------------------------------------------------------|
C|--0-0----------------------------------------------------------------|

[Verse 1] 
(Guitar 2) 
(Distorted)
D|---------------------------------------------------------------------|
A|---------------------------------------------------------------------|
F|---------------------------------------------------------------------|
C|--0--0---0--0---------------------8--8---8--8------------------------|
G|--0--0---0--0---------------------8--8---8--8------------------------|
C|--0--0---0--0---------------------8--8---8--8------------------------|
    pmpm   pmpm                     pmpm   pmpm

[Verse 1] 
(Guitar 2) 
(Distorted)
D|---------------------------------------------------------------------|
A|---------------------------------------------------------------------|
F|---------------------------------------------------------------------|
C|--3--3---3--3---------------------7--7---7--7------------------------|
G|--3--3---3--3---------------------7--7---7--7--------------8---------|
C|--3--3---3--3---------------------7--7---7--7-------7-8-10---10-8-7--|
    pmpm   pmpm                     pmpm   pmpm

[Pre-Chorus] 
(Guitars 1 & 2) 
(Distorted)
D|---------------------------------------------------------------------|
A|---------------------------------------------------------------------|
F|---------------------------------------------------------------------|
C|--8-8-8-8-8-8-8-8--8-8-8-8-8-8-8-10-10-10-10-10-10-10-10--10-7-7-8-7-|
G|--8-8-8-8-8-8-8-8--8-8-8-8-8-8-8-10-10-10-10-10-10-10-10--10-7-7-8-7-|
C|--8-8-8-8-8-8-8-8--8-8-8-8-8-8-8-10-10-10-10-10-10-10-10--10-7-7-8-7-|
    pmpmpmpmpmpmpmpm pmpmpmpmpmpmpmpmpmpmpmpmpmpmpmpmpmpmpm

[Chorus] 
(Guitars 1 & 2) 
(Distorted) 
(x2)
D|---------------------------------------------------------------------|
A|---------------------------------------------------------------------|
F|---------------------------------------------------------------------|
C|--0--0---3-3-3-3-3-------2--------0--0--0---3-3-3-3-3-------2--------|
G|--0--0-------------5-3-5---5-3-0--0--0--0-------------5-3-5---5-3-0--|
C|--0--0----------------------------0--0--0----------------------------|

[Chorus] 
(Guitars 1 & 2) 
(Distorted)
D|---------------------------------------------------------------------|
A|---------------------------------------------------------------------|
F|---------------------------------------------------------------------|
C|--8-----8-----8-----8----8---8---10--------10--------10--10-7-7-8-7--|
G|--8-----8-----8-----8----8---8---10--------10--------10--10-7-7-8-7--|
C|--8-----8-----8-----8----8---8---10--------10--------10--10-7-7-8-7--|

[Post-Chorus] 
(Guitar 1) 
(Distorted)
D|---------------------------------------------------------------------|
A|---------------------------------------------------------------------|
F|---------------------------------------------------------------------|
C|---------------------------------------------------------------------|
G|---------------------------------------------------------------------|
C|--0-1-0-3-0-10-7-0-11-8-0-7/13-13-13-13------------------------------|

[Post-Chorus] 
(Guitars 1 & 2) 
(Distorted)
D|---------------------------------------------------------------------|
A|---------------------------------------------------------------------|
F|---------------------------------------------------------------------|
C|---------------------------------------------------------------------|
G|---------------------------------------------------------------------|
C|--0-1-0-3-0-10-7-0-11-8-0-7-0-8-7\3--0-1-0-3-0-10-7-0-11-8-0-7--1----|

[Verse 2] 
(Guitars 1 & 2)
D|---------------------------------------------------------------------|
A|---------------------------------------------------------------------|
F|---------------------------------------------------------------------|
C|--0-0----------------------------------------------------------------|
G|--0-0----------------------------------------------------------------|
C|--0-0----------------------------------------------------------------|

[Verse 1] 
(Guitar 2) 
(Distorted)
D|---------------------------------------------------------------------|
A|---------------------------------------------------------------------|
F|---------------------------------------------------------------------|
C|--0--0---0--0---------------------8--8---8--8------------------------|
G|--0--0---0--0---------------------8--8---8--8------------------------|
C|--0--0---0--0---------------------8--8---8--8------------------------|
    pmpm   pmpm                     pmpm   pmpm

[Verse 2] 
(Guitar 2) 
(Distorted)
D|---------------------------------------------------------------------|
A|---------------------------------------------------------------------|
F|---------------------------------------------------------------------|
C|--3--3---3--3---------------------7--7---7--7------------------------|
G|--3--3---3--3---------------------7--7---7--7--------------8---------|
C|--3--3---3--3---------------------7--7---7--7-------7-8-10---10-8-7--|
    pmpm   pmpm                     pmpm   pmpm

[Pre-Chorus] 
(Guitars 1 & 2) 
(Distorted)
D|---------------------------------------------------------------------|
A|---------------------------------------------------------------------|
F|---------------------------------------------------------------------|
C|--8-8-8-8-8-8-8-8--8-8-8-8-8-8-8-10-10-10-10-10-10-10-10--10-7-7-8-7-|
G|--8-8-8-8-8-8-8-8--8-8-8-8-8-8-8-10-10-10-10-10-10-10-10--10-7-7-8-7-|
C|--8-8-8-8-8-8-8-8--8-8-8-8-8-8-8-10-10-10-10-10-10-10-10--10-7-7-8-7-|
    pmpmpmpmpmpmpmpm pmpmpmpmpmpmpmpmpmpmpmpmpmpmpmpmpmpmpm

[Chorus] 
(Guitars 1 & 2) 
(Distorted) 
(x2)
D|---------------------------------------------------------------------|
A|---------------------------------------------------------------------|
F|---------------------------------------------------------------------|
C|--0--0---3-3-3-3-3-------2--------0--0--0---3-3-3-3-3-------2--------|
G|--0--0-------------5-3-5---5-3-0--0--0--0-------------5-3-5---5-3-0--|
C|--0--0----------------------------0--0--0----------------------------|

[Chorus] 
(Guitars 1 & 2) 
(Distorted)
D|---------------------------------------------------------------------|
A|---------------------------------------------------------------------|
F|---------------------------------------------------------------------|
C|--8-----8-----8-----8----8---8---10--------10--------10--10-7-7-8-7--|
G|--8-----8-----8-----8----8---8---10--------10--------10--10-7-7-8-7--|
C|--8-----8-----8-----8----8---8---10--------10--------10--10-7-7-8-7--|

[Bridge] 
(Guitar 1)
(Distorted)
D|---------------------------------------------------------------------|
A|---------------------------------------------------------------------|
F|---------------------------------------------------------------------|
C|---------------------------------------------------------------------|
G|------3---------3--------------------3---------3---------------------|
C|--0-0---0---0-0---0--0--0-0-7----0-0---0---0-0---3-0-3-5-6-5-1-3-----|

[Bridge] 
(Guitars 1 & 2) 
(Distorted)
D|---------------------------------------------------------------------|
A|---------------------------------------------------------------------|
F|---------------------------------------------------------------------|
C|---------------------------------------------------------------------|
G|------3---------3--------------------3---------3---------------------|
C|--0-0---0---0-0---0--0--0-0-7----0-0---0---0-0---3-0-3-5-6-5-1-3-----|

[Bridge] 
(Guitars 1 & 2) 
(Distorted)
D|---------------------------------------------------------------------|
A|--4------------------------------3-----------------------------------|
F|--3------------------------------3-----------------------------------|
C|--1------------------------------1-----------------------------------|
G|--1------------------------------1---------------------666666666666--|
C|--1------------------------------------------------------------------|

[Chorus] 
(Guitars 1 & 2) 
(Distorted) 
(x2)
D|---------------------------------------------------------------------|
A|---------------------------------------------------------------------|
F|---------------------------------------------------------------------|
C|--0--0---3-3-3-3-3-------2--------0--0--0---3-3-3-3-3-------2--------|
G|--0--0-------------5-3-5---5-3-0--0--0--0-------------5-3-5---5-3-0--|
C|--0--0----------------------------0--0--0----------------------------|

[Chorus] 
(Guitars 1 & 2) 
(Distorted)
D|---------------------------------------------------------------------|
A|---------------------------------------------------------------------|
F|---------------------------------------------------------------------|
C|--8-----8-----8-----8----8---8---10--------10--------10--10-7-7-8-7--|
G|--8-----8-----8-----8----8---8---10--------10--------10--10-7-7-8-7--|
C|--8-----8-----8-----8----8---8---10--------10--------10--10-7-7-8-7--|

[Outro]
(Guitars 1 & 2)
(Distorted)
D|---------------------------------------------------------------------|
A|---------------------------------------------------------------------|
F|---------------------------------------------------------------------|
C|---------------------------------------------------------------------|
G|---------------------------------------------------------------------|
C|--0-1-0-3-0-7-8-0-11-8-0-7-10-0-7-8--0-1-0-3-0-7-8-0-11-8-0-7-10-7-8-|

[Outro] 
(Guitars 1 & 2)
(Distorted)
D|---------------------------------------------------------------------|
A|---------------------------------------------------------------------|
F|---------------------------------------------------------------------|
C|---------------------------------------------------------------------|
G|---------------------------------------------------------------------|
C|--0-1-0-3-0-7-8-0-11-8-0-7-10-0-7-8--0-1-0-3-0-7-8-0-11-8-0-7-10-7-8-|

[Outro End] 
(Guitars 1 & 2)
D|---------------------------------------------------------------------|
A|---------------------------------------------------------------------|
F|---------------------------------------------------------------------|
C|--0------------------------------------------------------------------|
G|--0------------------------------------------------------------------|
C|--0------------------------------------------------------------------|

6. Song: what lies beneath

Tuning Db Ab Db Gb Bb Eb

[Intro]
(Guitar 1) 
(Clean)
Eb|-------------------------------------------------------------------|
Bb|-------------------------------------------------------------------|
Gb|--------------------------0--------------0--------------0----------|
Db|--------4------------7------4---------4-------------4-----4-0------|
Ab|-----2-------------5---------------3------------------5------------|
Db|--2--------------5------5-------------------------0----------------|

[Verse 1] 
(Guitar 1) 
(Clean) 
(x3)
Eb|-------------------------------------------------------------------|
Bb|-------------------------------------------------------------------|
Gb|--------------------------------------0----------------0-----------|
Db|--------4--------------7----------4-----4-0---------4--------------|
Ab|-----2--------------5---------------5------------3-----------------|
Db|--2--------------5--------------0----------------------------------|

[Verse 1] 
(Guitar 1) 
(Clean) 
(x3)
Eb|-------------------------------------------------------------------|
Bb|-------------------------------------------------------------------|
Gb|--------------------------------------0--------------0-----0-------|
Db|--------4--------------7----------4-----4-0--------4-----4---------|
Ab|-----2--------------5---------------5------------3-----3-----------|
Db|--2--------------5--------------0----------------------------------|

[Chorus] 
(Guitar 1) 
(Distorted)
Eb|-------------------------------------------------------------------|
Bb|-------------------------------------------------------------------|
Gb|-------------------------------------------------------4--4--4-----|
Db|--5-5--5-5--5-5--5-5--5-5--5-5--0-0--0-0--0-0--0-0--0--4--4--4-----|
Ab|--5-5--5-5--5-5--5-5--5-5--5-5--0-0--0-0--0-0--0-0--0--2--2--2-----|
Db|--5-5--5-5--5-5--5-5--5-5--5-5--0-0--0-0--0-0--0-0--0--------------|
                                                                      
[Chorus] 
(Guitar 2) 
(Low Distortion)                                     
Eb|-------------------------------------------------------------------|
Bb|---------10--10---------10--10---------10--10----------------------|
Gb|----12-----12------12-----12------12-----12------12-----11---------|
Db|--12--12---------12--12---------12--12---------12--12----x---------|
Ab|---------------------------------------------------------9---------|
Db|-------------------------------------------------------------------|

[Chorus] 
(Guitar 1) 
(Distorted)
Eb|-------------------------------------------------------------------|
Bb|-------------------------------------------------------------------|
Gb|----------------------------------5-5--5-5--5-5--5-5--5------------|
Db|--2-2--2-2--2-2--0-0--0--2--2--2--5-5--5-5--5-5--5-5--5--0--0--0---|
Ab|--2-2--2-2--2-2--0-0--0--2--2--2--3-3--3-3--3-3--3-3--3--0--0--0---|
Db|--2-2--2-2--2-2--0-0--0--2--2--2-------------------------0--0--0---|
                                                                      
[Chorus] 
(Guitar 2) 
(Low Distortion)                                     
Eb|-------------------------------------------------------------------|
Bb|-------------------------------------------------------------------|
Gb|----11---12-11-9----11---12-11-9----11---12-11-9----11---11-12-9---|
Db|--12--12----------12--12----------12--12----------12--12-----------|
Ab|-------------------------------------------------------------------|
Db|-------------------------------------------------------------------|

[Chorus] 
(Guitar 1) 
(Distorted)
Eb|-------------------------------------------------------------------|
Bb|-------------------------------------------------------------------|
Gb|-------------------------------------------------------4--4--4-----|
Db|--5-5--5-5--5-5--5-5--5-5--5-5--0-0--0-0--0-0--0-0--0--4--4--4-----|
Ab|--5-5--5-5--5-5--5-5--5-5--5-5--0-0--0-0--0-0--0-0--0--2--2--2-----|
Db|--5-5--5-5--5-5--5-5--5-5--5-5--0-0--0-0--0-0--0-0--0--------------|
                                                                      
Chorus: Guitar 2 (Low Distortion)                                     
Eb|-------------------------------------------------------------------|
Bb|---------10--10---------10--10----------10--10---------------------|
Gb|----12-----12------12-----12-------12-----12------12-----11--------|
Db|--12--12---------12--12----------12--12---------12--12----x--------|
Ab|----------------------------------------------------------9--------|
Db|-------------------------------------------------------------------|

[Chorus] 
(Guitar 1) 
(Distorted)
Eb|-------------------------------------------------------------------|
Bb|-------------------------------------------------------------------|
Gb|----------------------------------5-5--5-5--5-5--5-5--5--4--4--4---|
Db|--2-2--2-2--2-2--0-0--0--2--2--2--5-5--5-5--5-5--5-5--5--4--4--4---|
Ab|--2-2--2-2--2-2--0-0--0--2--2--2--3-3--3-3--3-3--3-3--3--2--2--2---|
Db|--2-2--2-2--2-2--0-0--0--2--2--2-----------------------------------|
                                                                      
[Chorus]
(Guitar 2) 
(Low Distortion)                                     
Eb|-------------------------------------------------------------------|
Bb|-------------------------------------------------------------------|
Gb|----11---12-11-9----11---12-11-9----11---12-11-9----11---11-12-9---|
Db|--12--12----------12--12----------12--12----------12--12-----------|
Ab|-------------------------------------------------------------------|
Db|-------------------------------------------------------------------|

[Post-Chorus] 
(Guitar 1) 
(Distorted)
Eb|-------------------------------------------------------------------|
Bb|-------------------------------------------------------------------|
Gb|------------------4--4---4--4--4--5--5---5--5--5-----------4--4--4-|
Db|--2--2---2--2--2--4--4---4--4--4--5--5---5--5--5--5--5--5--4--4--4-|
Ab|--2--2---2--2--2--2--2---2--2--2--3--3---3--3--3--5--5--5--2--2--2-|
Db|--2--2---2--2--2----------------------------------5--5--5----------|
                                                                      
[Post-Chorus] 
(Guitar 2)
(Distorted)                                     
Eb|-------------------------------------------------------------------|
Bb|--5---------------7--------------/13-----------------------10------|
Gb|--------------------------------------------------------12----11-12|
Db|-------------------------------------------------------------------|
Ab|-------------------------------------------------------------------|
Db|-------------------------------------------------------------------|

[Verse 2] 
(Guitar 1)
(Clean)
(Strum)
(x4)
Eb|-------------------------------------------------3-----------------|
Bb|-------------------------------------------------3-----------------|
Gb|--4--------------7--------------2----------------5-----------------|
Db|--2--------------5--------------0----------------5-----------------|
Ab|--2--------------5--------------0----------------3-----------------|
Db|--2--------------5--------------0----------------------------------|
                                                                      
[Verse 2]
(Guitar 2) 
(Distorted)                 
Eb|-------------------------------------------------------------------|
Bb|-------------------------------------------------------------------|
Gb|--9----------------------------------------------------------------|
Db|-------------------------------------------------------------------|
Ab|-------------------------------------------------------------------|
Db|-------------------------------------------------------------------|

[Chorus] 
(Guitar 1) 
(Distorted)
Eb|-------------------------------------------------------------------|
Bb|-------------------------------------------------------------------|
Gb|-------------------------------------------------------4--4--4-----|
Db|--5-5--5-5--5-5--5-5--5-5--5-5--0-0--0-0--0-0--0-0--0--4--4--4-----|
Ab|--5-5--5-5--5-5--5-5--5-5--5-5--0-0--0-0--0-0--0-0--0--2--2--2-----|
Db|--5-5--5-5--5-5--5-5--5-5--5-5--0-0--0-0--0-0--0-0--0--------------|
                                                                      
[Chorus] 
(Guitar 2) 
(Low Distortion)                                     
Eb|-------------------------------------------------------------------|
Bb|---------10--10---------10--10---------10--10----------------------|
Gb|----12-----12------12-----12------12-----12------12-----11---------|
Db|--12--12---------12--12---------12--12---------12--12----x---------|
Ab|---------------------------------------------------------9---------|
Db|-------------------------------------------------------------------|

[Chorus] 
(Guitar 1) 
(Distorted)
Eb|-------------------------------------------------------------------|
Bb|-------------------------------------------------------------------|
Gb|----------------------------------5-5--5-5--5-5--5-5--5------------|
Db|--2-2--2-2--2-2--0-0--0--2--2--2--5-5--5-5--5-5--5-5--5--0--0--0---|
Ab|--2-2--2-2--2-2--0-0--0--2--2--2--3-3--3-3--3-3--3-3--3--0--0--0---|
Db|--2-2--2-2--2-2--0-0--0--2--2--2-------------------------0--0--0---|
                                                                      
[Chorus] 
(Guitar 2) 
(Low Distortion)                                     
Eb|-------------------------------------------------------------------|
Bb|-------------------------------------------------------------------|
Gb|----11---12-11-9----11---12-11-9----11---12-11-9----11---11-12-9---|
Db|--12--12----------12--12----------12--12----------12--12-----------|
Ab|-------------------------------------------------------------------|
Db|-------------------------------------------------------------------|

[Chorus] 
(Guitar 1) 
(Distorted)
Eb|-------------------------------------------------------------------|
Bb|-------------------------------------------------------------------|
Gb|-------------------------------------------------------4--4--4-----|
Db|--5-5--5-5--5-5--5-5--5-5--5-5--0-0--0-0--0-0--0-0--0--4--4--4-----|
Ab|--5-5--5-5--5-5--5-5--5-5--5-5--0-0--0-0--0-0--0-0--0--2--2--2-----|
Db|--5-5--5-5--5-5--5-5--5-5--5-5--0-0--0-0--0-0--0-0--0--------------|
                                                                      
[Chorus] 
(Guitar 2) 
(Low Distortion)                                     
Eb|-------------------------------------------------------------------|
Bb|---------10--10---------10--10----------10--10---------------------|
Gb|----12-----12------12-----12-------12-----12------12-----11--------|
Db|--12--12---------12--12----------12--12---------12--12----x--------|
Ab|----------------------------------------------------------9--------|
Db|-------------------------------------------------------------------|

[Chorus] 
(Guitar 1) 
(Distorted)
Eb|-------------------------------------------------------------------|
Bb|-------------------------------------------------------------------|
Gb|----------------------------------5-5--5-5--5-5--5-5--5--4--4--4---|
Db|--2-2--2-2--2-2--0-0--0--2--2--2--5-5--5-5--5-5--5-5--5--4--4--4---|
Ab|--2-2--2-2--2-2--0-0--0--2--2--2--3-3--3-3--3-3--3-3--3--2--2--2---|
Db|--2-2--2-2--2-2--0-0--0--2--2--2-----------------------------------|
                                                                      
[Chorus]
(Guitar 2) 
(Low Distortion)                                     
Eb|-------------------------------------------------------------------|
Bb|-------------------------------------------------------------------|
Gb|----11---12-11-9----11---12-11-9----11---12-11-9----11---11-12-9---|
Db|--12--12----------12--12----------12--12----------12--12-----------|
Ab|-------------------------------------------------------------------|
Db|-------------------------------------------------------------------|

[Bridge] 
(Guitar 1) 
(Distorted)
Eb|-------------------------------------------------------------------|
Bb|-------------------------------------------------------------------|
Gb|-------------------------------------5--5--5-5-5-5--4--4--4-4-4-4-4|
Db|------------555555------------5-4----5--5--5-5-5-5--5--5--5-5-5-5-5|
Ab|--0-h2-2-2----------0-h2-2-2------5--3--3--3-3-3-3--2--2--2-2-2-2-2|
Db|--0-h2-2-2----------0-h2-2-2---------------------------------------|
                                                                      
[Bridge] 
(Guitar 2) 
(Low Distortion)                                     
Eb|-------------------------------------------------------------------|
Bb|--------------------------------------------10--10-----------------|
Gb|---------------------------------------12-----12------11---11-12-9-|
Db|-------------------------------------12--12---------12--12---------|
Ab|-------------------------------------------------------------------|
Db|-------------------------------------------------------------------|

[Bridge] 
(Guitar 1) 
(Distorted)
Eb|-------------------------------------------------------------------|
Bb|-------------------------------------------------------------------|
Gb|-------------------------------------5--5--5-5-5-5--4--4--4-4-4-4-4|
Db|------------555555------------5-4----5--5--5-5-5-5--5--5--5-5-5-5-5|
Ab|--0-h2-2-2----------0-h2-2-2------5--3--3--3-3-3-3--2--2--2-2-2-2-2|
Db|--0-h2-2-2----------0-h2-2-2---------------------------------------|
                                                                      
[Bridge] 
(Guitar 2) 
(Low Distortion)                                     
Eb|-------------------------------------------------------------------|
Bb|--------------------------------------------10--10-----------------|
Gb|---------------------------------------12-----12------11---11-12-9-|
Db|-------------------------------------12--12---------12--12---------|
Ab|-------------------------------------------------------------------|
Db|-------------------------------------------------------------------|

[Bridge] 
(Guitar 1) 
(Distorted)
Eb|-------------------------------------------------------------------|
Bb|-------------------------------------------------------------------|
Gb|------------------------------------5------------------------------|
Db|--2----------------0----------------5------------------------------|
Ab|--2----------------0----------------3------------------------------|
Db|--2----------------0-----------------------------------------------|
                                                                      
[Bridge] 
(Guitar 2) 
(Low Distortion)                                     
Eb|-------------------------------------------------------------------|
Bb|-------------------------------------------------------------------|
Gb|-------11---12----------12---11-----9------------------------------|
Db|--12---------------12----------------------------------------------|
Ab|-------------------------------------------------------------------|
Db|-------------------------------------------------------------------|

[Chorus] 
(Guitar 1) 
(Distorted)
Eb|-------------------------------------------------------------------|
Bb|-------------------------------------------------------------------|
Gb|-------------------------------------------------------4--4--4-----|
Db|--5-5--5-5--5-5--5-5--5-5--5-5--0-0--0-0--0-0--0-0--0--4--4--4-----|
Ab|--5-5--5-5--5-5--5-5--5-5--5-5--0-0--0-0--0-0--0-0--0--2--2--2-----|
Db|--5-5--5-5--5-5--5-5--5-5--5-5--0-0--0-0--0-0--0-0--0--------------|
                                                                      
[Chorus] 
(Guitar 2) 
(Low Distortion)                                     
Eb|-------------------------------------------------------------------|
Bb|---------10--10---------10--10---------10--10----------------------|
Gb|----12-----12------12-----12------12-----12------12-----11---------|
Db|--12--12---------12--12---------12--12---------12--12----x---------|
Ab|---------------------------------------------------------9---------|
Db|-------------------------------------------------------------------|

[Chorus] 
(Guitar 1) 
(Distorted)
Eb|-------------------------------------------------------------------|
Bb|-------------------------------------------------------------------|
Gb|----------------------------------5-5--5-5--5-5--5-5--5------------|
Db|--2-2--2-2--2-2--0-0--0--2--2--2--5-5--5-5--5-5--5-5--5--0--0--0---|
Ab|--2-2--2-2--2-2--0-0--0--2--2--2--3-3--3-3--3-3--3-3--3--0--0--0---|
Db|--2-2--2-2--2-2--0-0--0--2--2--2-------------------------0--0--0---|
                                                                      
[Chorus] 
(Guitar 2) 
(Low Distortion)                                     
Eb|-------------------------------------------------------------------|
Bb|-------------------------------------------------------------------|
Gb|----11---12-11-9----11---12-11-9----11---12-11-9----11---11-12-9---|
Db|--12--12----------12--12----------12--12----------12--12-----------|
Ab|-------------------------------------------------------------------|
Db|-------------------------------------------------------------------|

[Chorus] 
(Guitar 1) 
(Distorted)
Eb|-------------------------------------------------------------------|
Bb|-------------------------------------------------------------------|
Gb|-------------------------------------------------------4--4--4-----|
Db|--5-5--5-5--5-5--5-5--5-5--5-5--0-0--0-0--0-0--0-0--0--4--4--4-----|
Ab|--5-5--5-5--5-5--5-5--5-5--5-5--0-0--0-0--0-0--0-0--0--2--2--2-----|
Db|--5-5--5-5--5-5--5-5--5-5--5-5--0-0--0-0--0-0--0-0--0--------------|
                                                                      
[Chorus] 
(Guitar 2) 
(Low Distortion)                                     
Eb|-------------------------------------------------------------------|
Bb|---------10--10---------10--10----------10--10---------------------|
Gb|----12-----12------12-----12-------12-----12------12-----11--------|
Db|--12--12---------12--12----------12--12---------12--12----x--------|
Ab|----------------------------------------------------------9--------|
Db|-------------------------------------------------------------------|

[Chorus] 
(Guitar 1) 
(Distorted)
Eb|-------------------------------------------------------------------|
Bb|-------------------------------------------------------------------|
Gb|----------------------------------5-5--5-5--5-5--5-5--5--4--4--4---|
Db|--2-2--2-2--2-2--0-0--0--2--2--2--5-5--5-5--5-5--5-5--5--4--4--4---|
Ab|--2-2--2-2--2-2--0-0--0--2--2--2--3-3--3-3--3-3--3-3--3--2--2--2---|
Db|--2-2--2-2--2-2--0-0--0--2--2--2-----------------------------------|
                                                                      
[Chorus] 
(Guitar 2) 
(Low Distortion)                                     
Eb|-------------------------------------------------------------------|
Bb|-------------------------------------------------------------------|
Gb|----11---12-11-9----11---12-11-9----11---12-11-9----11---11-12-9---|
Db|--12--12----------12--12----------12--12----------12--12-----------|
Ab|-------------------------------------------------------------------|
Db|-------------------------------------------------------------------|

[Outro] 
(Guitar 1) 
(Distorted)
Eb|-------------------------------------------------------------------|
Bb|-------------------------------------------------------------------|
Gb|------------------4--4---4--4--4--5--5---5--5--5-----------4--4--4-|
Db|--2--2---2--2--2--4--4---4--4--4--5--5---5--5--5--5--5--5--4--4--4-|
Ab|--2--2---2--2--2--2--2---2--2--2--3--3---3--3--3--5--5--5--2--2--2-|
Db|--2--2---2--2--2----------------------------------5--5--5----------|
                                                                      
[Outro] 
(Guitar 2) 
(Distorted)                                           
Eb|-------------------------------------------------------------------|
Bb|--5---------------7--------------/13-----------------------10------|
Gb|--------------------------------------------------------12----11-12|
Db|-------------------------------------------------------------------|
Ab|-------------------------------------------------------------------|
Db|-------------------------------------------------------------------|

[Outro] 
(Guitar 1) 
(Distorted)
Eb|-------------------------------------------------------------------|
Bb|-------------------------------------------------------------------|
Gb|-------------------------------------------------------------------|
Db|--2----------------------------------------------------------------|
Ab|--2----------------------------------------------------------------|
Db|--2----------------------------------------------------------------|
                                                                      
[Outro] 
(Guitar 1) 
(Distorted)                                           
Eb|-------------------------------------------------------------------|
Bb|-------------------------------------------------------------------|
Gb|--9----------------------------------------------------------------|
Db|-------------------------------------------------------------------|
Ab|-------------------------------------------------------------------|
Db|-------------------------------------------------------------------|

7. Song: anthem of the angels

Tuning: Drop C

(Guitar comes in at 0:07)
e|---------------------------------------------------------------------------|
B|-14------------------------------------------------------------------------|
G|---------------------------------------------------------------------------|
D|-------0-0-0-0---2---2-2h4-4-----------0-0-0-0---2---2-2h4-4---------------|
A|-------0-0-0-0---2---2-2h4-4-----------0-0-0-0---2---2-2h4-4---------------|
E|-------0-0-0-0---2---2-2h4-4---7p6-2h4-0-0-0-0---2---2-2h4-4---7p6-7h9-----|

e|---------------------------------------------------------------------------|
B|---------------------------------------------------------------------------|
G|---------------------------------------------------------------------------|
D|-0-0-0-0---2---2-2h4-4-----------0-0-0-0---2---2-2h4-4---------------------|
A|-0-0-0-0---2---2-2h4-4-----------0-0-0-0---2---2-2h4-4---------------------|
E|-0-0-0-0---2---2-2h4-4---7p6-2h4-0-0-0-0---2---2-2h4-4---7p6-2---0---------|

(0:57)
e|-------------------------------------------------------------|
B|-------------------------------------------------------------|
G|-------------------------------6-------6----------(6)--------|
D|--6---7-----7-------(7)--------6-------6----------(6)--------|
A|--6---7-----7-------(7)--------4-------4----------(4)--------|
E|--6---7-----7-------(7)--------------------------------------|

e|-------------------------------------------------------------|
B|-------------------------------------------------------------|
G|-------------------------------------------------------------|
D|--4-----4------2-2-----2-2----0-----0-------(0)-------2------|
A|--4-----4------2-2-----2-2----0-----0-------(0)-------2------|
E|--4-----4------2-2-----2-2----0-----0-------(0)-------2------|

e|-------------------------------------------------------------|
B|--10--9---------------------------10--9----------------------|
G|--------9-------------------------------9------9/11----------|
D|-----------11----------11---9h11-----------11----------------|
A|---------------11--12----------------------------------------|
E|-------------------------------------------------------------|

(1:56)
e|-------------------------------------------------------------|
B|-------------------------------------------------------------|
G|-------------------------------6-------6----------(6)--------|
D|--6---7-----7-------(7)--------6-------6----------(6)--------|
A|--6---7-----7-------(7)--------4-------4----------(4)--------|
E|--6---7-----7-------(7)--------------------------------------|

e|-------------------------------------------------------------|
B|-------------------------------------------------------------|
G|-------------------------------------------------------------|
D|--4-----4------2-2-----2-2----0-----0-------(0)-------2------|
A|--4-----4------2-2-----2-2----0-----0-------(0)-------2------|
E|--4-----4------2-2-----2-2----0-----0-------(0)-------2------|

e|-------------------------------------------------------------|
B|-------------------------------------------------------------|
G|-------------------------------6-------6----------(6)--------|
D|------7-----7-------(7)--------6-------6----------(6)--------|
A|------7-----7-------(7)--------4-------4----------(4)--------|
E|------7-----7-------(7)--------------------------------------|

e|-------------------------------------------------------------|
B|-------------------------------------------------------------|
G|-------------------------------------------------------------|
D|--4-----4------2-2-----2-2----0-----0-------(0)-------2------|
A|--4-----4------2-2-----2-2----0-----0-------(0)-------2------|
E|--4-----4------2-2-----2-2----0-----0-------(0)-------2------|

e|---------------------------------------------------------------------------------------|
B|--------------------------------------12-12-12-12-------------------------14-12-12-12--|
G|-11-11-11-11-/13-13-13-13-14-14-14-14----------------------14-14-13-------14-13-13-13--|
D|-----------------------------------------------------12-------------12-----------------|
A|---------------------------------------------------------------------------------------|
E|---------------------------------------------------------------------------------------|

e|---------------------------------------------------------------------------------------|
B|---------------------------------------------------------------------------------------|
G|-11-11-11-11-/13-13-13-13-------------13-13-13-13----------14-14-13--------------------|
D|--------------------------14-14-14-14----------------12-------------12-----------------|
A|--------------------------------------------------------------------------11-12-12-12--|
E|---------------------------------------------------------------------------------------|

e|---------------------------------------------------------------------------------------|
B|--------------------------------------------------------------------------14-15-15-15--|
G|-11-11-11-11-/13-13-13-13-14-14-14-14----------------------14-14-13-------14-16-16-16--|
D|--------------------------------------14-14-14-14----12-------------12-----------------|
A|---------------------------------------------------------------------------------------|
E|---------------------------------------------------------------------------------------|

e|---------------------------------------------------------------------------------------|
B|--------------------------14-14-14-14-17-17-17-17-17-15----------17-15-------14--------|
G|-11-11-11-11-/13-13-13-13--------------------------------------------------------------|
D|---------------------------------------------------------------------------------------|
A|---------------------------------------------------------------------------------------|
E|---------------------------------------------------------------------------------------|

(3:12)
e|-------------------------------------------------------------|
B|-------------------------------------------------------------|
G|-------------------------------------------------------------|
D|--4-----4------2-2-----2-2----0-----0-------(0)-------2------|
A|--4-----4------2-2-----2-2----0-----0-------(0)-------2------|
E|--4-----4------2-2-----2-2----0-----0-------(0)-------2------|

e|-------------------------------------------------------------|
B|-------------------------------------------------------------|
G|-------------------------------6-------6----------(6)--------|
D|------7-----7-------(7)--------6-------6----------(6)--------|
A|------7-----7-------(7)--------4-------4----------(4)--------|
E|------7-----7-------(7)--------------------------------------|

e|-------------------------------------------------------------|
B|-------------------------------------------------------------|
G|-------------------------------------------------------------|
D|--4-----4------2-2-----2-2----0-----0-------(0)-------2------|
A|--4-----4------2-2-----2-2----0-----0-------(0)-------2------|
E|--4-----4------2-2-----2-2----0-----0-------(0)-------2------|

e|-------------------------------------------------------------|
B|-------------------------------------------------------------|
G|-------------------------------------------------------------|
D|--4-----4------2-2-----2-2----0-----0-------(0)-------2------|
A|--4-----4------2-2-----2-2----0-----0-------(0)-------2------|
E|--4-----4------2-2-----2-2----0-----0-------(0)-------2------|

e|-------------------------------------------------------------|
B|-------------------------------------------------------------|
G|-------------------------------------------------------------|
D|--4----(4)-----2----(2)----2------0--------------------------|
A|--4----(4)-----2----(2)----2------0--------------------------|
E|--4----(4)-----2----(2)----2------0--------------------------|

8. Song: lights out

Tuning Bb F Bb Eb G C

[Intro] 
(Guitars 1 & 2) 
(Distorted)
 C|------------------------------------------------------------------------------------|
 G|------------------------------------------------------------------------------------|
Eb|------------------------------------------------------------------------------------|
Bb|------------------------------------------------------------------------------------|
 F|--------------------5----------3--6----------------------5--------5--6--3-----------|
Bb|--0---1--0---1-0-1----4-0-4-7----------0---1--0---1-0-1----4-0-4--------------------|

[Verse 1] 
(Guitar 1) 
(Distorted)
 C|------------------------------------------------------------------------------------|
 G|------------------------------------------------------------------------------------|
Eb|------------------------------------------------------------------------------------|
Bb|------------------------------------------------------------------------------------|
 F|------------------------------------------------------------------------------------|
Bb|-0-10-0-12-0-12-10-0-13/12-0-12-10-0-10-12-0-10-0-12-0-12-10-0-13/12-0-12-10-0-10-12|
     pmpmpmpmpmpmpmpmpmpmpmpmpmpmpmpmpmpmpmpmpmpmpmpmpmpmpmpmpmpmpmpmpmpmpmpmpmpmpmpmpm|
                                                                                       
[Verse 1]
(Guitar 2) 
(Distorted)                                                          
 C|------------------------------------------------------------------------------------|
 G|----------------------------------------10----------------------------11------------|
Eb|--7---------------------------------------------------------------------------------|
Bb|------------------------------------------------------------------------------------|
 F|------------------------------------------------------------------------------------|
Bb|------------------------------------------------------------------------------------|

[Verse 1] 
(Guitar 1) 
(Distorted)
 C|------------------------------------------------------------------------------------|
 G|------------------------------------------------------------------------------------|
Eb|------------------------------------------------------------------------------------|
Bb|-----------------------------------------------1----0---0--0---0--0--0---0--0--1----|
 F|-----------------------------------------------1----0---0--0---0--0--0---0--0--1----|
Bb|--0-10-0-12-0-12-10-0-13/12-0-12-10-0----------1----0---0--0---0--0--0---0--0--1----|
     pmpmpmpmpmpmpmpmpmpmpmpmpmpmpmpmpmpm                                              
                                                                                       
[Verse 1]
(Guitar 2) 
(Distorted)                                                          
 C|------------------------------------------------------------------------------------|
 G|--8---------------------------------------------------------------------------------|
Eb|------------------------------------------------------------------------------------|
Bb|-----------------------------------------------1----0---0--0---0--0--0---0--0--1----|
 F|-----------------------------------------------1----0---0--0---0--0--0---0--0--1----|
Bb|-----------------------------------------------1----0---0--0---0--0--0---0--0--1----|

[Verse 1] 
(Guitar 1) 
(Distorted)
 C|------------------------------------------------------------------------------------|
 G|------------------------------------------------------------------------------------|
Eb|------------------------------------------------------------------------------------|
Bb|------------------------------------------------------------------------------------|
 F|------------------------------------------------------------------------------------|
Bb|-0-10-0-12-0-12-10-0-13/12-0-12-10-0-10-12-0-10-0-12-0-12-10-0-13/12-0-12-10-0-10-12|
     pmpmpmpmpmpmpmpmpmpmpmpmpmpmpmpmpmpmpmpmpmpmpmpmpmpmpmpmpmpmpmpmpmpmpmpmpmpmpmpmpm|
                                                                                       
[Verse 1] 
(Guitar 2) 
(Distorted)                                                          
 C|------------------------------------------------------------------------------------|
 G|----------------------------------------10----------------------------11------------|
Eb|--7---------------------------------------------------------------------------------|
Bb|------------------------------------------------------------------------------------|
 F|------------------------------------------------------------------------------------|
Bb|------------------------------------------------------------------------------------|

[Verse 1] 
(Guitar 1) 
(Distorted)
 C|------------------------------------------------------------------------------------|
 G|------------------------------------------------------------------------------------|
Eb|------------------------------------------------------------------------------------|
Bb|-----------------------------------------------1-------0--0---0--0---0--1--0--3-----|
 F|-----------------------------------------------1---0h1-0--0---0--0---0--1--0--3-----|
Bb|--0-10-0-12-0-12-10-0-13/12-0-12-10-0----------1---0h1-0--0---0--0---0--1--0--3-----|
     pmpmpmpmpmpmpmpmpmpmpmpmpmpmpmpmpmpm                                              
                                                                                       
[Verse 1] 
(Guitar 2) 
(Distorted)                                                          
 C|------------------------------------------------------------------------------------|
 G|--8---------------------------------------------------------------------------------|
Eb|------------------------------------------------------------------------------------|
Bb|-----------------------------------------------1-------0--0---0--0---0--1--0--3-----|
 F|-----------------------------------------------1---0h1-0--0---0--0---0--1--0--3-----|
Bb|-----------------------------------------------1---0h1-0--0---0--0---0--1--0--3-----|

[Pre-Chorus] 
(Guitar 1) 
(Distorted)
(x2)
 C|------------------------------------------------------------------------------------|
 G|------------------------------------------------------------------------------------|
Eb|--10--10--10--10---10--10--10--10---12---12---12---12----12---12---12---12----------|
Bb|--8---8---8---8----8---8---8---8----10---10---10---10----10---10---10---10----------|
 F|--8---8---8---8----8---8---8---8----10---10---10---10----10---10---10---10----------|
Bb|--8---8---8---8----8---8---8---8----10---10---10---10----10---10---10---10----------|
                                                                                       
[Pre-Chorus] 
(Guitar 2)
(Distorted) 
(x2)                                        
 C|------------------------------------------------------------------------------------|
 G|--6-6-6-6--6-6-6-6--6-6-6-6--10-10-10-10--8-8-8-8--8-8-8-8--8-8-8-8-10-10-10-10-----|
Eb|--x-x-x-x--x-x-x-x--x-x-x-x---x--x--x--x--x-x-x-x--x-x-x-x--x-x-x-x--x--x--x--x-----|
Bb|--3-3-3-3--3-3-3-3--3-3-3-3---7--7--7--7--5-5-5-5--5-5-5-5--5-5-5-5--7--7--7--7-----|
 F|------------------------------------------------------------------------------------|
Bb|------------------------------------------------------------------------------------|

[Pre-Chorus]
(Guitar 1) 
(Distorted)
 C|------------------------------------------------------------------------------------|
 G|------------------------------------------------------------------------------------|
Eb|------------------------------------------------------------------------------------|
Bb|--0---0----0---0-----0---0----0---0-----0---0----0---0-----0---0----0---0-----------|
 F|--0---0----0---0-----0---0----0---0-----0---0----0---0-----0---0----0---0-----------|
Bb|--0---0----0---0-----0---0----0---0-----0---0----0---0-----0---0----0---0-----------|
                                                                                       
[Pre-Chorus] 
(Guitar 2)
(Distorted)                                                       
 C|------------------------------------------------------------------------------------|
 G|------------------------------------------------------------------------------------|
Eb|-11111111--11111111--11111111--11111111--7-7-7-7--7-7-7-7--7-7-7-7--9-9-9-9---------|
Bb|--x-x-x-x---x-x-x-x---x-x-x-x---x-x-x-x--x-x-x-x--x-x-x-x--x-x-x-x--x-x-x-x---------|
 F|--9-9-9-9---9-9-9-9---9-9-9-9---9-9-9-9--5-5-5-5--5-5-5-5--5-5-5-5--7-7-7-7---------|
Bb|------------------------------------------------------------------------------------|

[Pre-Chorus] 
(Guitar 1) 
(Distorted)
 C|------------------------------------------------------------------------------------|
 G|------------------------------------------------------------------------------------|
Eb|--10--10--10--10---10--10--10--10---12---12---12---12----12---12---12---12----------|
Bb|--8---8---8---8----8---8---8---8----10---10---10---10----10---10---10---10----------|
 F|--8---8---8---8----8---8---8---8----10---10---10---10----10---10---10---10----------|
Bb|--8---8---8---8----8---8---8---8----10---10---10---10----10---10---10---10----------|
                                                                                       
[Pre-Chorus] 
(Guitar 2)
(Distorted)                                        
 C|------------------------------------------------------------------------------------|
 G|------------------------------------------------------------------------------------|
Eb|-10101010--10101010--10101010--10101010--12121212--12121212--12121212--12121212-----|
Bb|--x-x-x-x---x-x-x-x---x-x-x-x---x-x-x-x---x-x-x-x---x-x-x-x---x-x-x-x--x-x-x-x------|
 F|--8-8-8-8---8-8-8-8---8-8-8-8---8-8-8-8--10101010--10101010--10101010--10101010-----|
Bb|------------------------------------------------------------------------------------|

[Chorus] 
(Guitar 1) 
(Distorted) 
(x2)
 C|------------------------------------------------------------------------------------|
 G|------------------------------------------------------------------------------------|
Eb|--14--14---14--14----14--14---14--14----14--14---14--14----14--14---14--14----------|
Bb|--12--12---12--12----12--12---12--12----12--12---12--12----12--12---12--12----------|
 F|--12--12---12--12----12--12---12--12----12--12---12--12----12--12---12--12----------|
Bb|--12--12---12--12----12--12---12--12----12--12---12--12----12--12---12--12----------|
                                                                                       
[Chorus] 
(Guitar 2) 
(Distorted)                                                           
 C|------------------------------------------------------------------------------------|
 G|------------------------------------------------------------------------------------|
Eb|--14--14---14--14----14--14---14--14----14--14---14--14----14--14---14--14----------|
Bb|---x---x----x---x-----x---x----x---x-----x---x----x---x-----x---x----x---x----------|
 F|--12--12---12--12----12--12---12--12----12--12---12--12----12--12---12--12----------|
Bb|------------------------------------------------------------------------------------|

[Chorus] 
(Guitar 1) 
(Distorted)
 C|------------------------------------------------------------------------------------|
 G|--10--10--10--10---10--10--10--10---------------------------------------------------|
Eb|--10--10--10--10---10--10--10--10---12---12---12---12----12---12---12---12----------|
Bb|--8---8---8---8----8---8---8---8----10---10---10---10----10---10---10---10----------|
 F|--8---8---8---8----8---8---8---8----10---10---10---10----10---10---10---10----------|
Bb|--8---8---8---8----8---8---8---8----10---10---10---10----10---10---10---10----------|
                                                                                       
[Chorus] 
(Guitar 2)
(Distorted)                                                           
 C|------------------------------------------------------------------------------------|
 G|------------------------------------------------------------------------------------|
Eb|--14--14---14--14----14--14---14--14----12--12---12--12----12--12---12--12----------|
Bb|---x---x----x---x-----x---x----x---x-----x---x----x---x-----x---x----x---x----------|
 F|--12--12---12--12----12--12---12--12----10--10---10--10----10--10---10--10----------|
Bb|------------------------------------------------------------------------------------|

[Chorus] 
(Guitar 1) 
(Distorted)
 C|------------------------------------------------------------------------------------|
 G|------------------------------------------------------------------------------------|
Eb|--14--14---14--14----14--14---14--14----14--14---14--14----14--14---14--14----------|
Bb|--12--12---12--12----12--12---12--12----12--12---12--12----12--12---12--12----------|
 F|--12--12---12--12----12--12---12--12----12--12---12--12----12--12---12--12----------|
Bb|--12--12---12--12----12--12---12--12----12--12---12--12----12--12---12--12----------|
                                                                                       
[Chorus] 
(Guitar 2) 
(Distorted)                                                           
 C|------------------------------------------------------------------------------------|
 G|------------------------------------------------------------------------------------|
Eb|--11--11---11--11----11--11---11--11----11--11---11--11----11--11---11--11----------|
Bb|---x---x----x---x-----x---x----x---x-----x---x----x---x-----x---x----x---x----------|
 F|---9---9----9---9-----9---9----9---9-----9---9----9---9-----9---9----9---9----------|
Bb|------------------------------------------------------------------------------------|

[Chorus] 
(Guitar 1) 
(Distorted)
 C|------------------------------------------------------------------------------------|
 G|--10--10--10--10---10--10--10--10---------------------------------------------------|
Eb|--10--10--10--10---10--10--10--10---12---12---12---12----12---12---12---12----------|
Bb|--8---8---8---8----8---8---8---8----10---10---10---10----10---10---10---10----------|
 F|--8---8---8---8----8---8---8---8----10---10---10---10----10---10---10---10----------|
Bb|--8---8---8---8----8---8---8---8----10---10---10---10----10---10---10---10----------|
                                                                                       
[Chorus]
(Guitar 2) 
(Distorted)                                                           
 C|------------------------------------------------------------------------------------|
 G|------------------------------------------------------------------------------------|
Eb|--14--14---14--14----14--14---14--14----12--12---12--12----12--12---12--12----------|
Bb|---x---x----x---x-----x---x----x---x-----x---x----x---x-----x---x----x---x----------|
 F|--12--12---12--12----12--12---12--12----10--10---10--10----10--10---10--10----------|
Bb|------------------------------------------------------------------------------------|

[Post-Chorus] 
(Guitars 1 & 2) 
(Distorted) 
(x2)
 C|------------------------------------------------------------------------------------|
 G|------------------------------------------------------------------------------------|
Eb|------------------------------------------------------------------------------------|
Bb|------------------------------------------------------------------------------------|
 F|--------------------5----------3--6----------------------5--------5--6--3-----------|
Bb|--0---1--0---1-0-1----4-0-4-7----------0---1--0---1-0-1----4-0-4--------------------|

[Verse 2]
(Guitar 1) 
(Distorted)
 C|------------------------------------------------------------------------------------|
 G|------------------------------------------------------------------------------------|
Eb|------------------------------------------------------------------------------------|
Bb|------------------------------------------------------------------------------------|
 F|------------------------------------------------------------------------------------|
Bb|-0-10-0-12-0-12-10-0-13/12-0-12-10-0-10-12-0-10-0-12-0-12-10-0-13/12-0-12-10-0-10-12|
     pmpmpmpmpmpmpmpmpmpmpmpmpmpmpmpmpmpmpmpmpmpmpmpmpmpmpmpmpmpmpmpmpmpmpmpmpmpmpmpmpm|
                                                                                       
[Verse 2] 
(Guitar 2) 
(Distorted)                                                          
 C|------------------------------------------------------------------------------------|
 G|----------------------------------------10----------------------------11------------|
Eb|--7---------------------------------------------------------------------------------|
Bb|------------------------------------------------------------------------------------|
 F|------------------------------------------------------------------------------------|
Bb|------------------------------------------------------------------------------------|

[Verse 2] 
(Guitar 1) 
(Distorted)
 C|------------------------------------------------------------------------------------|
 G|------------------------------------------------------------------------------------|
Eb|------------------------------------------------------------------------------------|
Bb|-----------------------------------------------1----0---0--0---0--0--0---0--0--1----|
 F|-----------------------------------------------1----0---0--0---0--0--0---0--0--1----|
Bb|--0-10-0-12-0-12-10-0-13/12-0-12-10-0----------1----0---0--0---0--0--0---0--0--1----|
     pmpmpmpmpmpmpmpmpmpmpmpmpmpmpmpmpmpm                                              
                                                                                       
[Verse 2] 
(Guitar 2) 
(Distorted)                                                          
 C|------------------------------------------------------------------------------------|
 G|--8---------------------------------------------------------------------------------|
Eb|------------------------------------------------------------------------------------|
Bb|-----------------------------------------------1----0---0--0---0--0--0---0--0--1----|
 F|-----------------------------------------------1----0---0--0---0--0--0---0--0--1----|
Bb|-----------------------------------------------1----0---0--0---0--0--0---0--0--1----|

[Verse 2] 
(Guitar 1) 
(Distorted)
 C|------------------------------------------------------------------------------------|
 G|------------------------------------------------------------------------------------|
Eb|------------------------------------------------------------------------------------|
Bb|------------------------------------------------------------------------------------|
 F|------------------------------------------------------------------------------------|
Bb|-0-10-0-12-0-12-10-0-13/12-0-12-10-0-10-12-0-10-0-12-0-12-10-0-13/12-0-12-10-0-10-12|
     pmpmpmpmpmpmpmpmpmpmpmpmpmpmpmpmpmpmpmpmpmpmpmpmpmpmpmpmpmpmpmpmpmpmpmpmpmpmpmpmpm|
                                                                                       
[Verse 2] 
(Guitar 2)
(Distorted)                                                          
 C|------------------------------------------------------------------------------------|
 G|----------------------------------------10----------------------------11------------|
Eb|--7---------------------------------------------------------------------------------|
Bb|------------------------------------------------------------------------------------|
 F|------------------------------------------------------------------------------------|
Bb|------------------------------------------------------------------------------------|

[Verse 2] 
(Guitar 1) 
(Distorted)
 C|------------------------------------------------------------------------------------|
 G|------------------------------------------------------------------------------------|
Eb|------------------------------------------------------------------------------------|
Bb|-----------------------------------------------1-------0--0---0--0---0--1--0--3-----|
 F|-----------------------------------------------1---0h1-0--0---0--0---0--1--0--3-----|
Bb|--0-10-0-12-0-12-10-0-13/12-0-12-10-0----------1---0h1-0--0---0--0---0--1--0--3-----|
     pmpmpmpmpmpmpmpmpmpmpmpmpmpmpmpmpmpm                                              
                                                                                       
[Verse 2] 
(Guitar 2) 
(Distorted)                                                          
 C|------------------------------------------------------------------------------------|
 G|--8---------------------------------------------------------------------------------|
Eb|------------------------------------------------------------------------------------|
Bb|-----------------------------------------------1-------0--0---0--0---0--1--0--3-----|
 F|-----------------------------------------------1---0h1-0--0---0--0---0--1--0--3-----|
Bb|-----------------------------------------------1---0h1-0--0---0--0---0--1--0--3-----|

[Pre-Chorus] 
(Guitar 1) 
(Distorted) 
(x2)
 C|------------------------------------------------------------------------------------|
 G|------------------------------------------------------------------------------------|
Eb|--10--10--10--10---10--10--10--10---12---12---12---12----12---12---12---12----------|
Bb|--8---8---8---8----8---8---8---8----10---10---10---10----10---10---10---10----------|
 F|--8---8---8---8----8---8---8---8----10---10---10---10----10---10---10---10----------|
Bb|--8---8---8---8----8---8---8---8----10---10---10---10----10---10---10---10----------|
                                                                                       
[Pre-Chorus] 
(Guitar 2) 
(Distorted) 
(x2)                                        
 C|------------------------------------------------------------------------------------|
 G|--6-6-6-6--6-6-6-6--6-6-6-6--10-10-10-10--8-8-8-8--8-8-8-8--8-8-8-8-10-10-10-10-----|
Eb|--x-x-x-x--x-x-x-x--x-x-x-x---x--x--x--x--x-x-x-x--x-x-x-x--x-x-x-x--x--x--x--x-----|
Bb|--3-3-3-3--3-3-3-3--3-3-3-3---7--7--7--7--5-5-5-5--5-5-5-5--5-5-5-5--7--7--7--7-----|
 F|------------------------------------------------------------------------------------|
Bb|------------------------------------------------------------------------------------|

[Pre-Chorus] 
(Guitar 1) 
(Distorted)
 C|------------------------------------------------------------------------------------|
 G|------------------------------------------------------------------------------------|
Eb|------------------------------------------------------------------------------------|
Bb|--0---0----0---0-----0---0----0---0-----0---0----0---0-----0---0----0---0-----------|
 F|--0---0----0---0-----0---0----0---0-----0---0----0---0-----0---0----0---0-----------|
Bb|--0---0----0---0-----0---0----0---0-----0---0----0---0-----0---0----0---0-----------|
                                                                                       
[Pre-Chorus] 
(Guitar 2) 
(Distorted)                                                       
 C|------------------------------------------------------------------------------------|
 G|------------------------------------------------------------------------------------|
Eb|-11111111--11111111--11111111--11111111--7-7-7-7--7-7-7-7--7-7-7-7--9-9-9-9---------|
Bb|--x-x-x-x---x-x-x-x---x-x-x-x---x-x-x-x--x-x-x-x--x-x-x-x--x-x-x-x--x-x-x-x---------|
 F|--9-9-9-9---9-9-9-9---9-9-9-9---9-9-9-9--5-5-5-5--5-5-5-5--5-5-5-5--7-7-7-7---------|
Bb|------------------------------------------------------------------------------------|

[Pre-Chorus] 
(Guitar 1) 
(Distorted)
 C|------------------------------------------------------------------------------------|
 G|------------------------------------------------------------------------------------|
Eb|--10--10--10--10---10--10--10--10---12---12---12---12----12---12---12---12----------|
Bb|--8---8---8---8----8---8---8---8----10---10---10---10----10---10---10---10----------|
 F|--8---8---8---8----8---8---8---8----10---10---10---10----10---10---10---10----------|
Bb|--8---8---8---8----8---8---8---8----10---10---10---10----10---10---10---10----------|
                                                                                       
[Pre-Chorus] 
(Guitar 2) 
(Distorted)                                           
 C|------------------------------------------------------------------------------------|
 G|------------------------------------------------------------------------------------|
Eb|-10101010--10101010--10101010--10101010--12121212--12121212--12121212--12121212-----|
Bb|--x-x-x-x---x-x-x-x---x-x-x-x---x-x-x-x---x-x-x-x---x-x-x-x---x-x-x-x--x-x-x-x------|
 F|--8-8-8-8---8-8-8-8---8-8-8-8---8-8-8-8--10101010--10101010--10101010--10101010-----|
Bb|------------------------------------------------------------------------------------|

[Chorus] 
(Guitar 1) 
(Distorted) 
(x2)
 C|------------------------------------------------------------------------------------|
 G|------------------------------------------------------------------------------------|
Eb|--14--14---14--14----14--14---14--14----14--14---14--14----14--14---14--14----------|
Bb|--12--12---12--12----12--12---12--12----12--12---12--12----12--12---12--12----------|
 F|--12--12---12--12----12--12---12--12----12--12---12--12----12--12---12--12----------|
Bb|--12--12---12--12----12--12---12--12----12--12---12--12----12--12---12--12----------|
                                                                                       
[Chorus] 
(Guitar 2) 
(Distorted)                                                           
 C|------------------------------------------------------------------------------------|
 G|------------------------------------------------------------------------------------|
Eb|--14--14---14--14----14--14---14--14----14--14---14--14----14--14---14--14----------|
Bb|---x---x----x---x-----x---x----x---x-----x---x----x---x-----x---x----x---x----------|
 F|--12--12---12--12----12--12---12--12----12--12---12--12----12--12---12--12----------|
Bb|------------------------------------------------------------------------------------|

[Chorus]
(Guitar 1) 
(Distorted)
 C|------------------------------------------------------------------------------------|
 G|--10--10--10--10---10--10--10--10---------------------------------------------------|
Eb|--10--10--10--10---10--10--10--10---12---12---12---12----12---12---12---12----------|
Bb|--8---8---8---8----8---8---8---8----10---10---10---10----10---10---10---10----------|
 F|--8---8---8---8----8---8---8---8----10---10---10---10----10---10---10---10----------|
Bb|--8---8---8---8----8---8---8---8----10---10---10---10----10---10---10---10----------|

[Chorus] 
(Guitar 2) 
(Distorted)                                                           
 C|------------------------------------------------------------------------------------|
 G|------------------------------------------------------------------------------------|
Eb|--14--14---14--14----14--14---14--14----12--12---12--12----12--12---12--12----------|
Bb|---x---x----x---x-----x---x----x---x-----x---x----x---x-----x---x----x---x----------|
 F|--12--12---12--12----12--12---12--12----10--10---10--10----10--10---10--10----------|
Bb|------------------------------------------------------------------------------------|

[Chorus] 
(Guitar 1)
(Distorted)
 C|------------------------------------------------------------------------------------|
 G|------------------------------------------------------------------------------------|
Eb|--14--14---14--14----14--14---14--14----14--14---14--14----14--14---14--14----------|
Bb|--12--12---12--12----12--12---12--12----12--12---12--12----12--12---12--12----------|
 F|--12--12---12--12----12--12---12--12----12--12---12--12----12--12---12--12----------|
Bb|--12--12---12--12----12--12---12--12----12--12---12--12----12--12---12--12----------|
                                                                                       
[Chorus] 
(Guitar 2) 
(Distorted)                                                           
 C|------------------------------------------------------------------------------------|
 G|------------------------------------------------------------------------------------|
Eb|--11--11---11--11----11--11---11--11----11--11---11--11----11--11---11--11----------|
Bb|---x---x----x---x-----x---x----x---x-----x---x----x---x-----x---x----x---x----------|
 F|---9---9----9---9-----9---9----9---9-----9---9----9---9-----9---9----9---9----------|
Bb|------------------------------------------------------------------------------------|

[Chorus] 
(Guitar 1) 
(Distorted)
 C|------------------------------------------------------------------------------------|
 G|--10--10--10--10---10--10--10--10---------------------------------------------------|
Eb|--10--10--10--10---10--10--10--10---12---12---12---12----12---12---12---12----------|
Bb|--8---8---8---8----8---8---8---8----10---10---10---10----10---10---10---10----------|
 F|--8---8---8---8----8---8---8---8----10---10---10---10----10---10---10---10----------|
Bb|--8---8---8---8----8---8---8---8----10---10---10---10----10---10---10---10----------|
                                                                                       
[Chorus] 
(Guitar 2) 
(Distorted)                                                           
 C|------------------------------------------------------------------------------------|
 G|------------------------------------------------------------------------------------|
Eb|--14--14---14--14----14--14---14--14----12--12---12--12----12--12---12--12----------|
Bb|---x---x----x---x-----x---x----x---x-----x---x----x---x-----x---x----x---x----------|
 F|--12--12---12--12----12--12---12--12----10--10---10--10----10--10---10--10----------|
Bb|------------------------------------------------------------------------------------|

[Bridge] 
(Guitar 1) 
(Distorted)
 C|------------------------------------------------------------------------------------|
 G|------------------------------------------------------------------------------------|
Eb|------------------------------------------------------------------------------------|
Bb|------------------------------------------------------------------------------------|
 F|--3------------0-----------10---------0------0--------------------------------------|
Bb|--3------------0-----------10---------0------0----10---7----5----7------------------|
                                                                                       
[Bridge] 
(Guitar 2)
(Distorted)                                                           
 C|-----------------8----------10---8--------------------------------------------------|
 G|--3---7---8---7------8---7----------11---10--------10b(11)r10---------10------------|
Eb|----------------------------------------------12-----------------12-----------------|
Bb|------------------------------------------------------------------------------------|
 F|------------------------------------------------------------------------------------|
Bb|------------------------------------------------------------------------------------|

[Bridge] 
(Guitar 1) 
(Distorted)
 C|------------------------------------------------------------------------------------|
 G|------------------------------------------------------------------------------------|
Eb|------------------------------------------------------------------------------------|
Bb|------------------------------------------------------------------------------------|
 F|---8--8--8--8--8--8--8--8--3--3--3--3--7--7--7--7--3----------0---------10----------|
Bb|---8--8--8--8--8--8--8--8--3--3--3--3--7--7--7--7--3----------0---------10----------|
                                                                                       
[Bridge] 
(Guitar 2) 
(Distorted)                                                           
 C|----------------------------------------------------------------8--------10--8------|
 G|--11-11-11-11-10-10-10-10--8--8--8--8-10-10-10-10--3---7--8--7-----8--7-------------|
Eb|---x--x--x--x--x--x--x--x--x--x--x--x--x--x--x--x-----------------------------------|
Bb|---8--8--8--8--7--7--7--7--5--5--5--5--7--7--7--7-----------------------------------|
 F|------------------------------------------------------------------------------------|
Bb|------------------------------------------------------------------------------------|

[Bridge] 
(Guitar 1) 
(Distorted)
 C|------------------------------------------------------------------------------------|
 G|------------------------------------------------------------------------------------|
Eb|------------------------------------------------------------------------------------|
Bb|---------------------------------------------------------------------5--5--5--5-----|
 F|----0------0-----------------------8--8--8--8--8--8--8--8-3--3--3--3-3--3--3--3-----|
Bb|----0------0----10---7----5----7---8--8--8--8--8--8--8--8-3--3--3--3----------------|
                                                                                       
[Bridge] 
(Guitar 2) 
(Distorted)                                                           
 C|----------------12b(13)r--10--12--13-13-13-13-12-12-12-12-----------12-12-12-12-----|
 G|--11---10------------------------------------------------13-13-13-13----------------|
Eb|------------12----------------------------------------------------------------------|
Bb|------------------------------------------------------------------------------------|
 F|------------------------------------------------------------------------------------|
Bb|------------------------------------------------------------------------------------|

[Bridge] 
(Guitar 1) 
(Distorted)
 C|------------------------------------------------------------------------------------|
 G|------------------------------------------------------------------------------------|
Eb|------------------------------------------------------------------------------------|
Bb|------------------------------------------------------------------------------------|
 F|--0--0--0--1---0--------------------------------------------------------------------|
Bb|--0--0--0--1---0--------------------------------------------------------------------|
                                                                                       
[Bridge] 
(Guitar 2) 
(Distorted)                                                           
 C|--10-10-10-11-10--------------------------------------------------------------------|
 G|------------------------------------------------------------------------------------|
Eb|------------------------------------------------------------------------------------|
Bb|------------------------------------------------------------------------------------|
 F|------------------------------------------------------------------------------------|
Bb|------------------------------------------------------------------------------------|

[Chorus 2] 
(Guitar 1) 
(Distorted)
 C|------------------------------------------------------------------------------------|
 G|--10--10--10--10---10--10--10--10---------------------------------------------------|
Eb|--10--10--10--10---10--10--10--10---12---12---12---12----12---12---12---12----------|
Bb|--8---8---8---8----8---8---8---8----10---10---10---10----10---10---10---10----------|
 F|--8---8---8---8----8---8---8---8----10---10---10---10----10---10---10---10----------|
Bb|--8---8---8---8----8---8---8---8----10---10---10---10----10---10---10---10----------|
                                                                                       
[Chorus 2] 
(Guitar 2) 
(Distorted)                                                         
 C|------------------------------------------------------------------------------------|
 G|------------------------------------------------------------------------------------|
Eb|--14--14---14--14----14--14---14--14----12--12---12--12----12--12---12--12----------|
Bb|---x---x----x---x-----x---x----x---x-----x---x----x---x-----x---x----x---x----------|
 F|--12--12---12--12----12--12---12--12----10--10---10--10----10--10---10--10----------|
Bb|------------------------------------------------------------------------------------|

[Chorus 2] 
(Guitar 1) 
(Distorted)
 C|------------------------------------------------------------------------------------|
 G|------------------------------------------------------------------------------------|
Eb|--14--14---14--14----14--14---14--14----14--14---14--14----14--14---14--14----------|
Bb|--12--12---12--12----12--12---12--12----12--12---12--12----12--12---12--12----------|
 F|--12--12---12--12----12--12---12--12----12--12---12--12----12--12---12--12----------|
Bb|--12--12---12--12----12--12---12--12----12--12---12--12----12--12---12--12----------|
                                                                                       
[Chorus 2] 
(Guitar 2) 
(Distorted)                                                         
 C|------------------------------------------------------------------------------------|
 G|------------------------------------------------------------------------------------|
Eb|--11--11---11--11----11--11---11--11----11--11---11--11----11--11---11--11----------|
Bb|---x---x----x---x-----x---x----x---x-----x---x----x---x-----x---x----x---x----------|
 F|---9---9----9---9-----9---9----9---9-----9---9----9---9-----9---9----9---9----------|
Bb|------------------------------------------------------------------------------------|

[Chorus] 
(Guitar 1)
(Distorted)
 C|------------------------------------------------------------------------------------|
 G|--10--10--10--10---10--10--10--10---------------------------------------------------|
Eb|--10--10--10--10---10--10--10--10---12---12---12---12----12---12---12---12----------|
Bb|--8---8---8---8----8---8---8---8----10---10---10---10----10---10---10---10----------|
 F|--8---8---8---8----8---8---8---8----10---10---10---10----10---10---10---10----------|
Bb|--8---8---8---8----8---8---8---8----10---10---10---10----10---10---10---10----------|

[Chorus] 
(Guitar 2) 
(Distorted)                                                           
 C|------------------------------------------------------------------------------------|
 G|------------------------------------------------------------------------------------|
Eb|--14--14---14--14----14--14---14--14----12--12---12--12----12--12---12--12----------|
Bb|---x---x----x---x-----x---x----x---x-----x---x----x---x-----x---x----x---x----------|
 F|--12--12---12--12----12--12---12--12----10--10---10--10----10--10---10--10----------|
Bb|------------------------------------------------------------------------------------|

[Chorus] 
(Guitar 1) 
(Distorted) 
(x2)
 C|------------------------------------------------------------------------------------|
 G|------------------------------------------------------------------------------------|
Eb|--14--14---14--14----14--14---14--14----14--14---14--14----14--14---14--14----------|
Bb|--12--12---12--12----12--12---12--12----12--12---12--12----12--12---12--12----------|
 F|--12--12---12--12----12--12---12--12----12--12---12--12----12--12---12--12----------|
Bb|--12--12---12--12----12--12---12--12----12--12---12--12----12--12---12--12----------|
                                                                                       
[Chorus] 
(Guitar 2) 
(Distorted)                                                           
 C|------------------------------------------------------------------------------------|
 G|------------------------------------------------------------------------------------|
Eb|--14--14---14--14----14--14---14--14----14--14---14--14----14--14---14--14----------|
Bb|---x---x----x---x-----x---x----x---x-----x---x----x---x-----x---x----x---x----------|
 F|--12--12---12--12----12--12---12--12----12--12---12--12----12--12---12--12----------|
Bb|------------------------------------------------------------------------------------|

[Chorus] 
(Guitar 1) 
(Distorted)
 C|------------------------------------------------------------------------------------|
 G|--10--10--10--10---10--10--10--10---------------------------------------------------|
Eb|--10--10--10--10---10--10--10--10---12---12---12---12----12---12---12---12----------|
Bb|--8---8---8---8----8---8---8---8----10---10---10---10----10---10---10---10----------|
 F|--8---8---8---8----8---8---8---8----10---10---10---10----10---10---10---10----------|
Bb|--8---8---8---8----8---8---8---8----10---10---10---10----10---10---10---10----------|
                                                                                       
[Chorus] 
(Guitar 2) 
(Distorted)                                                           
 C|------------------------------------------------------------------------------------|
 G|------------------------------------------------------------------------------------|
Eb|--14--14---14--14----14--14---14--14----12--12---12--12----12--12---12--12----------|
Bb|---x---x----x---x-----x---x----x---x-----x---x----x---x-----x---x----x---x----------|
 F|--12--12---12--12----12--12---12--12----10--10---10--10----10--10---10--10----------|
Bb|------------------------------------------------------------------------------------|

[Chorus] 
(Guitar 1) 
(Distorted)
 C|------------------------------------------------------------------------------------|
 G|------------------------------------------------------------------------------------|
Eb|--14--14---14--14----14--14---14--14----14--14---14--14----14--14---14--14----------|
Bb|--12--12---12--12----12--12---12--12----12--12---12--12----12--12---12--12----------|
 F|--12--12---12--12----12--12---12--12----12--12---12--12----12--12---12--12----------|
Bb|--12--12---12--12----12--12---12--12----12--12---12--12----12--12---12--12----------|
                                                                                       
[Chorus] 
(Guitar 2) 
(Distorted)                                                           
 C|------------------------------------------------------------------------------------|
 G|------------------------------------------------------------------------------------|
Eb|--11--11---11--11----11--11---11--11----11--11---11--11----11--11---11--11----------|
Bb|---x---x----x---x-----x---x----x---x-----x---x----x---x-----x---x----x---x----------|
 F|---9---9----9---9-----9---9----9---9-----9---9----9---9-----9---9----9---9----------|
Bb|------------------------------------------------------------------------------------|

[Chorus] 
(Guitar 1)
(Distorted)
 C|------------------------------------------------------------------------------------|
 G|--10--10--10--10---10--10--10--10---------------------------------------------------|
Eb|--10--10--10--10---10--10--10--10---12---12---12---12----12---12---12---12----------|
Bb|--8---8---8---8----8---8---8---8----10---10---10---10----10---10---10---10----------|
 F|--8---8---8---8----8---8---8---8----10---10---10---10----10---10---10---10----------|
Bb|--8---8---8---8----8---8---8---8----10---10---10---10----10---10---10---10----------|
                                                                                       
[Chorus] 
(Guitar 2) 
(Distorted)                                                           
 C|------------------------------------------------------------------------------------|
 G|------------------------------------------------------------------------------------|
Eb|--14--14---14--14----14--14---14--14----12--12---12--12----12--12---12--12----------|
Bb|---x---x----x---x-----x---x----x---x-----x---x----x---x-----x---x----x---x----------|
 F|--12--12---12--12----12--12---12--12----10--10---10--10----10--10---10--10----------|
Bb|------------------------------------------------------------------------------------|

[Outro] 
(Guitars 1 & 2) 
(Distorted)
 C|------------------------------------------------------------------------------------|
 G|------------------------------------------------------------------------------------|
Eb|------------------------------------------------------------------------------------|
Bb|------------------------------------------------------------------------------------|
 F|--1--0--0--0----1--0--0----0---0---0-0----------------------------------------------|
Bb|--1--0--0--0----1--0--0----0---0---0-0----------------------------------------------|

9. Song: dear agony

Drop C- CGCFAD

[Intro]
Aaron
D|-0---0-8~-0------0---0-8~-0------|
A|---6--------6------6--------6----|
F|--------------5~--------------5~-|
C|---------------------------------|
G|---------------------------------|
C|---------------------------------|

Ben
D|-----------------------------------------------------------------|
A|-----------------------------------------------------------------|
F|-----------------------------------------------------------------|
C|-0-0-0-0-0-0-0-0-0-0-0-0-0-0-0-0-3-3-3-3-3-3-3-3-3-3-3-3-3-3-3-3-|
G|-0-0-0-0-0-0-0-0-0-0-0-0-0-0-0-0-3-3-3-3-3-3-3-3-3-3-3-3-3-3-3-3-|
C|-0-0-0-0-0-0-0-0-0-0-0-0-0-0-0-0-3-3-3-3-3-3-3-3-3-3-3-3-3-3-3-3-|

Aaron
D|-0---0-8~-0------0---0-8~-0------0---0-8~-0------0---0-8~-0------|
A|---6--------6------6--------6------6--------6------6--------6----|
F|--------------5~--------------5~--------------5~--------------5~-|
C|-----------------------------------------------------------------|
G|-----------------------------------------------------------------|
C|-----------------------------------------------------------------|

Ben
D|-----------------------------------------------------------------|
A|-----------------------------------------------------------------|
F|-2-2-2-2-2-2-2-2-2-2-2-2-2-2-2-2-5~~-3~~~---5-3~~~-3-3-3-3-2-2-2-|
C|-2-2-2-2-2-2-2-2-2-2-2-2-2-2-2-2-5~~-3~~~-0-5-3~~~-3-3-3-3-2-2-2-|
G|-0-0-0-0-0-0-0-0-0-0-0-0-0-0-0-0-3~~-1~~~-0-3-1~~~-1-1-1-1-0-0-0-|
C|------------------------------------------0----------------------|

Aaron
D|-0---0-8~-0------0---0-8~-0------0---0-8~-0------0---0-8~-0------|
A|---6--------6------6--------6------6--------6------6--------6----|
F|--------------5~--------------5~--------------5~--------------5~-|
C|-----------------------------------------------------------------|
G|-----------------------------------------------------------------|
C|-----------------------------------------------------------------|

[Verse]
Ben
D|-------------------------------------------------------|
A|-------------------------------------------------------|
F|-------------------------------------------------------|
C|-3~~~~~~~~~~~~~~~~~~~~~~~~~~~--------------------------|
G|-3~~~~~~~~~~~~~~~~~~~~~~~~~~~--------------------------|
C|-3~~~~~~~~~~~~~~~~~~~~~~~~~~~--------------------------|

Aaron
D|-------3-------------3-------------0-------------0-----|
A|---6-----6---6---6-----6---6---6-----6---6---6-----6---|
F|-5---5-----5---5---5-----5---5---5-----5---5---5-----5-|
C|-------------------------------------------------------|
G|-------------------------------------------------------|
C|-------------------------------------------------------|
"I have nothing left to give, I have found a perfect end...

Aaron
D|-------3-------------3-------------8-------------8-----|
A|---6-----6---6---6-----6---6---6-----6---6---6-----6---|
F|-5---5-----5---5---5-----5---5---5-----5---5---5-----5-|
C|-------------------------------------------------------|
G|-------------------------------------------------------|
C|-------------------------------------------------------|
...You were made to make it hurt, disappear into the dirt...

Aaron
D|-------3-------------3-------------0-------------0-----|
A|---6-----6---6---6-----6---6---6-----6---6---6-----6---|
F|-5---5-----5---5---5-----5---5---5-----5---5---5-----5-|
C|-------------------------------------------------------|
G|-------------------------------------------------------|
C|-------------------------------------------------------|
...Carry me into heavens arms, light the way and let me go...

Aaron
D|-------3-------------3-------------8-------------8-----|
A|---6-----6---6---6-----6---6---6-----6---6---6-----6---|
F|-5---5-----5---5---5-----5---5---5-----5---5---5-----5-|
C|-------------------------------------------------------|
G|-------------------------------------------------------|
C|-------------------------------------------------------|
...Take the time to take my breath, I will end where I beg-

[Pre-Chorus]
Ben
D|----------------------------------------------------------------|
A|----------------------------------------------------------------|
F|---------------------5~~~~~~~~~~~~~-3~~~~~~~~~~~~-3~~~~~~~---5~~|
C|-x-x-0~~~~~~~~~~~~~~-5~~~~~~~~~~~~~-3~~~~~~~~~~~~-3~~~~~~~-x-5~~|
G|-x-x-0~~~~~~~~~~~~~~-3~~~~~~~~~~~~~-1~~~~~~~~~~~~-1~~~~~~~-x-3~~|
C|-x-x-0~~~~~~~~~~~~~~---------------------------------------x----|

Aaron
D|------------6--------------8--------------3-------------3-------|
A|-------10-----10--10--10-----10--10---6-----6---6---6-----6---6-|
F|-----10--10-----10--10--10-----10---5---5-----5---5---5-----5---|
C|-x-x------------------------------------------------------------|
G|-x-x------------------------------------------------------------|
C|-x-x------------------------------------------------------------|
an... And I will find the enemy within...

Ben
D|------------------------------------------------------------|
A|------------------------------------------------------------|
F|-----------------5~~~~~~~~~~~~~-3~~~~~~-3-3-3-3-5-5-5-5-5-5-|
C|-0~~~~~~~~~~~~~~-5~~~~~~~~~~~~~-3~~~~~~-3-3-3-3-5-5-5-5-5-5-|
G|-0~~~~~~~~~~~~~~-3~~~~~~~~~~~~~-1~~~~~~-1-1-1-1-3-3-3-3-3-3-|
C|-0~~~~~~~~~~~~~~--------------------------------------------|

Aaron
D|--------6--------------8--------------3-------------3-------|
A|---10-----10--10--10-----10--10---6-----6---6---6-----6---6-|
F|-10--10-----10--10--10-----10---5---5-----5---5---5-----5---|
C|------------------------------------------------------------|
G|------------------------------------------------------------|
C|------------------------------------------------------------|
...'Cause I can feel it crawl beneath my skiiin"

[Chorus]
Ben
D|--------------------------------------------------------------|
A|--------------------------------------------------------------|
F|------------------------------------------------------------5~|
C|-3-3-3-3-3-3-3-3-3-3-3-3-3-3-2~-0-0-0-0-0-0-0-0-0-0-0-0-0-0-5~|
G|-3-3-3-3-3-3-3-3-3-3-3-3-3-3-2~-0-0-0-0-0-0-0-0-0-0-0-0-0-0-3~|
C|-3-3-3-3-3-3-3-3-3-3-3-3-3-3-2~-0-0-0-0-0-0-0-0-0-0-0-0-0-0---|

Aaron
D|--------------------------------------14-14-14-14--|
A|o-10-10-10-10-11-11-11-11-13-13-13-13-------------o|
F|---------------------------------------------------|
C|---------------------------------------------------|
G|o-------------------------------------------------o|
C|---------------------------------------------------|
"Dear Agonyyyyy, just let go of meeee, suff-

Ben
D|----------------------------------------------------------------------------------|
A|----------------------------------------------------------------------------------|
F|-3-3-3-3-3-3-3-3-3-3-3-3-3-3-3-2~-------------------------5-5-5-5-5-5-5-5-5-5-5-5-|
C|-3-3-3-3-3-3-3-3-3-3-3-3-3-3-3-2~-5-5-5-5-5-5-5-5-5-5-5-5-5-5-5-5-5-5-5-5-5-5-5-5-|
G|-1-1-1-1-1-1-1-1-1-1-1-1-1-1-1-0~-5-5-5-5-5-5-5-5-5-5-5-5-3-3-3-3-3-3-3-3-3-3-3-3-|
C|----------------------------------5-5-5-5-5-5-5-5-5-5-5-5-------------------------|

Aaron
D|------------------------------------14-14-14-14-------------------------14-14-14-14-16-16-16-16|
A|10-10-10-10-11-11-11-11-13-13-13-13-------------15-15-15-15-13-13-13-13------------------------|
F|-----------------------------------------------------------------------------------------------|
C|-----------------------------------------------------------------------------------------------|
G|-----------------------------------------------------------------------------------------------|
C|-----------------------------------------------------------------------------------------------|
...-er slowlyyyy, is this the way it's gotta beeee?

Ben
D|---------------------------------|
A|---------------------------------|
F|---------------------------------|
C|-3-3-3-3-3-3-3-3-3-3-3-3-3-3-3-3-|
G|-3-3-3-3-3-3-3-3-3-3-3-3-3-3-3-3-|
C|-3-3-3-3-3-3-3-3-3-3-3-3-3-3-3-3-|

Aaron
D|-------------------------------------14-14-14-14-|
A|-10-10-10-10-11-11-11-11-13-13-13-13-------------|
F|-------------------------------------------------|
C|-------------------------------------------------|
G|-------------------------------------------------|
C|-------------------------------------------------|
...Dear Agonyyyyy"

Ben
D|-----------------------------------------------------------------|
A|-----------------------------------------------------------------|
F|---------------------------------2-2-2-2-2-2-2-2-3-3-3-3-3-3-3-3-|
C|-0-0-0-0-0-0-0-0-3-3-3-3-3-3-3-3-2-2-2-2-2-2-2-2-3-3-3-3-3-3-3-3-|
G|-0-0-0-0-0-0-0-0-3-3-3-3-3-3-3-3-0-0-0-0-0-0-0-0-1-1-1-1-1-1-1-1-|
C|-0-0-0-0-0-0-0-0-3-3-3-3-3-3-3-3---------------------------------|

Aaron
D|-0---0-8~-0------0---0-8~-0------0---0-8~-0------0---0-8~-0------|
A|---6--------6------6--------6------6--------6------6--------6----|
F|--------------5~--------------5~--------------5~--------------5~-|
C|-----------------------------------------------------------------|
G|-----------------------------------------------------------------|
C|-----------------------------------------------------------------|

[Verse]
Ben
D|-------------------------------------------------------|
A|-------------------------------------------------------|
F|-------------------------------------------------------|
C|-3~~~~~~~~~~~~~~~~~~~~~~~~~~~--------------------------|
G|-3~~~~~~~~~~~~~~~~~~~~~~~~~~~--------------------------|
C|-3~~~~~~~~~~~~~~~~~~~~~~~~~~~--------------------------|

Aaron
D|-------3-------------3-------------0-------------0-----|
A|---6-----6---6---6-----6---6---6-----6---6---6-----6---|
F|-5---5-----5---5---5-----5---5---5-----5---5---5-----5-|
C|-------------------------------------------------------|
G|-------------------------------------------------------|
C|-------------------------------------------------------|
"Suddenly the lights go out, let forever drag me down...

Aaron
D|-------3-------------3-------------8-------------8-----|
A|---6-----6---6---6-----6---6---6-----6---6---6-----6---|
F|-5---5-----5---5---5-----5---5---5-----5---5---5-----5-|
C|-------------------------------------------------------|
G|-------------------------------------------------------|
C|-------------------------------------------------------|
...I will fight for one last breath, I will fight until the e-

[Pre-Chorus]
Ben
D|----------------------------------------------------------------|
A|----------------------------------------------------------------|
F|---------------------5~~~~~~~~~~~~~-3~~~~~~~~~~~~-3~~~~~~~---5~~|
C|-x-x-0~~~~~~~~~~~~~~-5~~~~~~~~~~~~~-3~~~~~~~~~~~~-3~~~~~~~-x-5~~|
G|-x-x-0~~~~~~~~~~~~~~-3~~~~~~~~~~~~~-1~~~~~~~~~~~~-1~~~~~~~-x-3~~|
C|-x-x-0~~~~~~~~~~~~~~---------------------------------------x----|

Aaron
D|------------6--------------8--------------3-------------3-------|
A|-------10-----10--10--10-----10--10---6-----6---6---6-----6---6-|
F|-----10--10-----10--10--10-----10---5---5-----5---5---5-----5---|
C|-x-x------------------------------------------------------------|
G|-x-x------------------------------------------------------------|
C|-x-x------------------------------------------------------------|
-nd... And I will find the enemy within...

Ben
D|------------------------------------------------------------|
A|------------------------------------------------------------|
F|-----------------5~~~~~~~~~~~~~-3~~~~~~-3-3-3-3-5-5-5-5-5-5-|
C|-0~~~~~~~~~~~~~~-5~~~~~~~~~~~~~-3~~~~~~-3-3-3-3-5-5-5-5-5-5-|
G|-0~~~~~~~~~~~~~~-3~~~~~~~~~~~~~-1~~~~~~-1-1-1-1-3-3-3-3-3-3-|
C|-0~~~~~~~~~~~~~~--------------------------------------------|

Aaron
D|--------6--------------8--------------3-------------3-------|
A|---10-----10--10--10-----10--10---6-----6---6---6-----6---6-|
F|-10--10-----10--10--10-----10---5---5-----5---5---5-----5---|
C|------------------------------------------------------------|
G|------------------------------------------------------------|
C|------------------------------------------------------------|
...'Cause I can feel it crawl beneath my skiiin"

[Chorus]
Ben
D|--------------------------------------------------------------|
A|--------------------------------------------------------------|
F|------------------------------------------------------------5~|
C|-3-3-3-3-3-3-3-3-3-3-3-3-3-3-2~-0-0-0-0-0-0-0-0-0-0-0-0-0-0-5~|
G|-3-3-3-3-3-3-3-3-3-3-3-3-3-3-2~-0-0-0-0-0-0-0-0-0-0-0-0-0-0-3~|
C|-3-3-3-3-3-3-3-3-3-3-3-3-3-3-2~-0-0-0-0-0-0-0-0-0-0-0-0-0-0---|

Aaron
D|--------------------------------------14-14-14-14--|
A|o-10-10-10-10-11-11-11-11-13-13-13-13-------------o|
F|---------------------------------------------------|
C|---------------------------------------------------|
G|o-------------------------------------------------o|
C|---------------------------------------------------|
"Dear Agonyyyyy, just let go of meeee, suff

Ben
D|----------------------------------------------------------------------------------|
A|----------------------------------------------------------------------------------|
F|-3-3-3-3-3-3-3-3-3-3-3-3-3-3-3-2~-------------------------5-5-5-5-5-5-5-5-5-5-5-5-|
C|-3-3-3-3-3-3-3-3-3-3-3-3-3-3-3-2~-5-5-5-5-5-5-5-5-5-5-5-5-5-5-5-5-5-5-5-5-5-5-5-5-|
G|-1-1-1-1-1-1-1-1-1-1-1-1-1-1-1-0~-5-5-5-5-5-5-5-5-5-5-5-5-3-3-3-3-3-3-3-3-3-3-3-3-|
C|----------------------------------5-5-5-5-5-5-5-5-5-5-5-5-------------------------|

Aaron
D|------------------------------------14-14-14-14-------------------------14-14-14-14-16-16-16-16|
A|10-10-10-10-11-11-11-11-13-13-13-13-------------15-15-15-15-13-13-13-13------------------------|
F|-----------------------------------------------------------------------------------------------|
C|-----------------------------------------------------------------------------------------------|
G|-----------------------------------------------------------------------------------------------|
C|-----------------------------------------------------------------------------------------------|
...-er slowlyyyy, is this the way it's gotta beeee?

Ben
D|-----------------------------------------------------------------|
A|-----------------------------------------------------------------|
F|-----------------------------5~-3-3-3-3-3-3-3-3-3-3-3-3-3-3-3-5~-|
C|-0-0-0-0-0-0-0-0-0-0-0-0-0-0-5~-3-3-3-3-3-3-3-3-3-3-3-3-3-3-3-5~-|
G|-0-0-0-0-0-0-0-0-0-0-0-0-0-0-3~-1-1-1-1-1-1-1-1-1-1-1-1-1-1-1-3~-|
C|-0-0-0-0-0-0-0-0-0-0-0-0-0-0-------------------------------------|

Aaron
D|------------------------------------14-14-14-14-------------------------16-16-16-16-18-18-18-18|
A|10-10-10-10-11-11-11-11-13-13-13-13-------------15-15-15-15-13-13-13-13------------------------|
F|-----------------------------------------------------------------------------------------------|
C|-----------------------------------------------------------------------------------------------|
G|-----------------------------------------------------------------------------------------------|
C|-----------------------------------------------------------------------------------------------|
...Don't bury meee, faceless enemyyyy...

Ben
D|-----------------------------------------------------------------|
A|-----------------------------------------------------------------|
F|---------------------------------5-5-5-5-5-5-5-5-5-5-5-5-5-5-5-5-|
C|-3-3-3-3-3-3-3-3-3-3-3-3-3-3-3-3-5-5-5-5-5-5-5-5-5-5-5-5-5-5-5-5-|
G|-3-3-3-3-3-3-3-3-3-3-3-3-3-3-3-3-3-3-3-3-3-3-3-3-3-3-3-3-3-3-3-3-|
C|-3-3-3-3-3-3-3-3-3-3-3-3-3-3-3-3---------------------------------|

Aaron
D|-----------------------------------------------------------------------------|
A|-11-11-11-11-10-10-10-10-8-8-8-8-10-10-10-10-8-8-8-8-6-6-6-6-5-5-5-5-8-8-8-8-|
F|-----------------------------------------------------------------------------|
C|-----------------------------------------------------------------------------|
G|-----------------------------------------------------------------------------|
C|-----------------------------------------------------------------------------|
...I'm so sorryyy, is this the way it's gotta beeeee?

Ben
D|---------------------------------|
A|---------------------------------|
F|-3-3-3-3-3-3-3-3-3-3-3-3-3-3-3-3-|
C|-3-3-3-3-3-3-3-3-3-3-3-3-3-3-3-3-|
G|-1-1-1-1-1-1-1-1-1-1-1-1-1-1-1-1-|
C|---------------------------------|

Aaron
D|-14-14-14-14---------------------------------|
A|-------------8-8-8-8-10-10-10-10-13-13-13-13-|
F|---------------------------------------------|
C|---------------------------------------------|
G|---------------------------------------------|
C|---------------------------------------------|
...Dear Agonyyyyy"

[Breakdown]
Ben
D|------------------------------------------------------------------|
A|o-----------------------------------------------------------------|
F|--------------------------3-3-3-3-------------------------5-5-5-5-|
C|--0-0-0-0-0-0-0-0-0-0-0-0-3-3-3-3-0-0-0-0-0-0-0-0-0-0-0-0-3-3-3-3-|
G|o-0-0-0-0-0-0-0-0-0-0-0-0-1-1-1-1-0-0-0-0-0-0-0-0-0-0-0-0-3-3-3-3-|
C|--0-0-0-0-0-0-0-0-0-0-0-0---------0-0-0-0-0-0-0-0-0-0-0-0---------|

Aaron
D|-----------------------------------------------------------------|
A|o-10-10-10-10-10-10-10-10-10-10-10-10-10-10-10-10-10-10-10-13-13-|
F|-----------------------------------------------------------------|
C|-----------------------------------------------------------------|
G|o----------------------------------------------------------------|
C|-----------------------------------------------------------------|
-"Leave me alone, God let me go...
-Love, pull me down. Hate, lift me up...

Ben
D|------------------------------------------------------------------|
A|-----------------------------------------------------------------o|
F|-3-3-3-3-3-3-3-3-3-3-3-3-3-3-3-3-3-3-3-3-3-3-3-3-3-3-3-3-5-5-5-5--|
C|-3-3-3-3-3-3-3-3-3-3-3-3-3-3-3-3-3-3-3-3-3-3-3-3-3-3-3-3-5-5-5-5--|
G|-1-1-1-1-1-1-1-1-1-1-1-1-1-1-1-1-1-1-1-1-1-1-1-1-1-1-1-1-3-3-3-3-o|
C|------------------------------------------------------------------|

Aaron
D|-----------------------------------------------------------------|
A|-11-11-11-11-11-11-11-11-11-11-11-11-11-11-11-11-11-11-11-13-13-o|
F|-----------------------------------------------------------------|
C|-----------------------------------------------------------------|
G|----------------------------------------------------------------o|
C|-----------------------------------------------------------------|
...All blue and cold, black sky will burn...
...Just turn around, there's nothing left...

Ben
D|-------------------------------------------------------|
A|-------------------------------------------------------|
F|-------------------------------------------------------|
C|-3~~~~~~~~~~~~~~~~~~~~~~~~~~-0~~~~~~~~~~~~~~~~~~~~~~~~~|
G|-3~~~~~~~~~~~~~~~~~~~~~~~~~~-0~~~~~~~~~~~~~~~~~~~~~~~~~|
C|-3~~~~~~~~~~~~~~~~~~~~~~~~~~-0~~~~~~~~~~~~~~~~~~~~~~~~~|

Aaron
D|-------8-------------3-------------8-------------3-----|
A|---6-----6---6---6-----6---6---6-----6---6---6-----6---|
F|-5---5-----5---5---5-----5---5---5-----5---5---5-----5-|
C|-------------------------------------------------------|
G|-------------------------------------------------------|
C|-------------------------------------------------------|
...Somewhere far beyond this world

Ben
D|-------------------------------------------------------|
A|-------------------------------------------------------|
F|-3~~~~~~~~~~~~~~~~~~~~~~~~~~-5~~~~~~~~~~~~~~~~~~~~~~~~~|
C|-3~~~~~~~~~~~~~~~~~~~~~~~~~~-5~~~~~~~~~~~~~~~~~~~~~~~~~|
G|-1~~~~~~~~~~~~~~~~~~~~~~~~~~-3~~~~~~~~~~~~~~~~~~~~~~~~~|
C|-------------------------------------------------------|

Aaron
D|-------8-------------3---------0-------3~~~~~~~~~~~~~~~|
A|---6-----6---6---6-----6---6-----6---6~~~~~~~~~~~~~~~~~|
F|-5---5-----5---5---5-----5---5-----5~~~~~~~~~~~~~~~~~~~|
C|-------------------------------------------------------|
G|-------------------------------------------------------|
C|-------------------------------------------------------|
...I feel nothing more"

[Chorus]
Ben
D|--------------------------------------------------------------|
A|--------------------------------------------------------------|
F|------------------------------------------------------------5~|
C|-3-3-3-3-3-3-3-3-3-3-3-3-3-3-2~-0-0-0-0-0-0-0-0-0-0-0-0-0-0-5~|
G|-3-3-3-3-3-3-3-3-3-3-3-3-3-3-2~-0-0-0-0-0-0-0-0-0-0-0-0-0-0-3~|
C|-3-3-3-3-3-3-3-3-3-3-3-3-3-3-2~-0-0-0-0-0-0-0-0-0-0-0-0-0-0---|

Aaron
D|--------------------------------------14-14-14-14--|
A|o-10-10-10-10-11-11-11-11-13-13-13-13-------------o|
F|---------------------------------------------------|
C|---------------------------------------------------|
G|o-------------------------------------------------o|
C|---------------------------------------------------|
"Dear Agonyyyyy, just let go of meeee, suff-

Ben
D|----------------------------------------------------------------------------------|
A|----------------------------------------------------------------------------------|
F|-3-3-3-3-3-3-3-3-3-3-3-3-3-3-3-2~-------------------------5-5-5-5-5-5-5-5-5-5-5-5-|
C|-3-3-3-3-3-3-3-3-3-3-3-3-3-3-3-2~-5-5-5-5-5-5-5-5-5-5-5-5-5-5-5-5-5-5-5-5-5-5-5-5-|
G|-1-1-1-1-1-1-1-1-1-1-1-1-1-1-1-0~-5-5-5-5-5-5-5-5-5-5-5-5-3-3-3-3-3-3-3-3-3-3-3-3-|
C|----------------------------------5-5-5-5-5-5-5-5-5-5-5-5-------------------------|

Aaron
D|------------------------------------14-14-14-14-------------------------14-14-14-14-16-16-16-16|
A|10-10-10-10-11-11-11-11-13-13-13-13-------------15-15-15-15-13-13-13-13------------------------|
F|-----------------------------------------------------------------------------------------------|
C|-----------------------------------------------------------------------------------------------|
G|-----------------------------------------------------------------------------------------------|
C|-----------------------------------------------------------------------------------------------|
...-er slowlyyyy, is this the way it's gotta beeee?

Ben
D|-----------------------------------------------------------------|
A|-----------------------------------------------------------------|
F|-----------------------------5~-3-3-3-3-3-3-3-3-3-3-3-3-3-3-3-5~-|
C|-0-0-0-0-0-0-0-0-0-0-0-0-0-0-5~-3-3-3-3-3-3-3-3-3-3-3-3-3-3-3-5~-|
G|-0-0-0-0-0-0-0-0-0-0-0-0-0-0-3~-1-1-1-1-1-1-1-1-1-1-1-1-1-1-1-3~-|
C|-0-0-0-0-0-0-0-0-0-0-0-0-0-0-------------------------------------|

Aaron
D|------------------------------------14-14-14-14-------------------------16-16-16-16-18-18-18-18|
A|10-10-10-10-11-11-11-11-13-13-13-13-------------15-15-15-15-13-13-13-13------------------------|
F|-----------------------------------------------------------------------------------------------|
C|-----------------------------------------------------------------------------------------------|
G|-----------------------------------------------------------------------------------------------|
C|-----------------------------------------------------------------------------------------------|
...Don't bury meee, faceless enemyyyy...

Ben
D|-----------------------------------------------------------------|
A|-----------------------------------------------------------------|
F|---------------------------------5-5-5-5-5-5-5-5-5-5-5-5-5-5-5-5-|
C|-3-3-3-3-3-3-3-3-3-3-3-3-3-3-3-3-5-5-5-5-5-5-5-5-5-5-5-5-5-5-5-5-|
G|-3-3-3-3-3-3-3-3-3-3-3-3-3-3-3-3-3-3-3-3-3-3-3-3-3-3-3-3-3-3-3-3-|
C|-3-3-3-3-3-3-3-3-3-3-3-3-3-3-3-3---------------------------------|

Aaron
D|-----------------------------------------------------------------------------|
A|-11-11-11-11-10-10-10-10-8-8-8-8-10-10-10-10-8-8-8-8-6-6-6-6-5-5-5-5-8-8-8-8-|
F|-----------------------------------------------------------------------------|
C|-----------------------------------------------------------------------------|
G|-----------------------------------------------------------------------------|
C|-----------------------------------------------------------------------------|
...I'm so sorryyy, is this the way it's gotta beeeee?

Ben
D|---------------------------------|
A|---------------------------------|
F|-3-3-3-3-3-3-3-3-3-3-3-3-3-3-3-3-|
C|-3-3-3-3-3-3-3-3-3-3-3-3-3-3-3-3-|
G|-1-1-1-1-1-1-1-1-1-1-1-1-1-1-1-1-|
C|---------------------------------|

Aaron
D|-14-14-14-14---------------------------------|
A|-------------8-8-8-8-10-10-10-10-13-13-13-13-|
F|---------------------------------------------|
C|---------------------------------------------|
G|---------------------------------------------|
C|---------------------------------------------|
...Dear Agonyyyyy"

Ben
D|-----------------------------------------------------------------|
A|-----------------------------------------------------------------|
F|---------------------------------2-2-2-2-2-2-2-2-3-3-3-3-3-3-3-3-|
C|-0-0-0-0-0-0-0-0-3-3-3-3-3-3-3-3-2-2-2-2-2-2-2-2-3-3-3-3-3-3-3-3-|
G|-0-0-0-0-0-0-0-0-3-3-3-3-3-3-3-3-0-0-0-0-0-0-0-0-1-1-1-1-1-1-1-1-|
C|-0-0-0-0-0-0-0-0-3-3-3-3-3-3-3-3---------------------------------|

Aaron
D|-0---0-8~-0------0---0-8~-0------0---0-8~-0------0---0-8~-0------|
A|---6--------6------6--------6------6--------6------6--------6----|
F|--------------5~--------------5~--------------5~--------------5~-|
C|-----------------------------------------------------------------|
G|-----------------------------------------------------------------|
C|-----------------------------------------------------------------|
                             ...I feel nothing any-

Ben
D|-----------------------------------------------------------------|
A|-----------------------------------------------------------------|
F|-----------------------------------------------------------------|
C|-3~~~~~~~~~~~~~~~~~~~~~~~~~~~~~~~~~~~~~~~~~~~~~~~~~~~~~~~~~~~~~~~|
G|-3~~~~~~~~~~~~~~~~~~~~~~~~~~~~~~~~~~~~~~~~~~~~~~~~~~~~~~~~~~~~~~~|
C|-3~~~~~~~~~~~~~~~~~~~~~~~~~~~~~~~~~~~~~~~~~~~~~~~~~~~~~~~~~~~~~~~|

Aaron
D|-----------------------------------------------------------------|
A|-6~~~~~~~~~~~~~~~~~~~~~~~~~~~~~~~~~~~~~~~~~~~~~~~~~~~~~~~~~~~~~~~|
F|-----------------------------------------------------------------|
C|-----------------------------------------------------------------|
G|-----------------------------------------------------------------|
C|-----------------------------------------------------------------|
-more"



10. Song: into the nothing

Tuning Db Ab Db Gb Bb Eb

[Intro]
(Guitars 1 & 2)
(Distorted)
Eb|---------------------------------------------------------------------------|
Bb|---------------------------------------------------------------------------|
Gb|---------------------------------------------------------------------------|
Db|-----------------------------3-3-0-0---------------------------------------|
Ab|--3\2---2--2--0--2---2--3--2----------3\2---2--2--0--2---2--5--0------3-3--|
Db|--3\2---2--2--0--2---2--3--2----------3\2---2--2--0--2---2--5--0--7-7------|

[Intro] 
(Guitars 1 & 2) 
(Distorted)
Eb|---------------------------------------------------------------------------|
Bb|---------------------------------------------------------------------------|
Gb|---------------------------------------------------------------------------|
Db|-----------------------------3-3-0-0---------------------------------------|
Ab|--3\2---2--2--0--2---2--3--2----------3\2---2--2--0--2---2--5--0---3\2-----|
Db|--3\2---2--2--0--2---2--3--2----------3\2---2--2--0--2---2--5--0---3\2-----|

[Verse 1] 
(Guitar 1)
Eb|-----------------------------------3---------3-----------5-----------------|
Bb|-----------------------------------3---------3-----------5-----------------|
Gb|-----------------------------------5---------4-----------7-----------------|
Db|--(2)------------------------------5---------5-----------7-----------------|
Ab|--(2)------------------------------3---------3-----------5-----------------|
Db|--(2)----------------------------------------------------------------------|
      ^-- Fade out                    ^-- Switch to clean (start strumming)   
                                                                              
[Verse 1] 
(Guitar 2) 
(Clean STRUM)                                               
Eb|---------------------------------------------------------------------------|
Bb|--12----------------13----12-----------------------------------------------|
Gb|---x-----------------x-----x-------12--------------------14----------------|
Db|---9----------------10-----9-------12--------------------14----------------|
Ab|-----------------------------------10--------------------12----------------|
Db|---------------------------------------------------------------------------|
                                                                              
[Verse 1] 
(Guitar 3) 
(Clean)                                                     
Eb|---------------------------------------------------------19----------------|
Bb|-------------------------------20--19--------17----------------------------|
Gb|---------------------------------------------------------------------------|
Db|---------------------------------------------------------------------------|
Ab|---------------------------------------------------------------------------|
Db|---------------------------------------------------------------------------|

[Verse 1] 
(Guitar 1) 
(Clean STRUM)
Eb|-----------------------------------3---------3-----------5-----------------|
Bb|-----------------------------------3---------3-----------5-----------------|
Gb|--4--------------------------------5---------4-----------7-----------------|
Db|--2--------------------------------5---------5-----------7-----------------|
Ab|--2--------------------------------3---------3-----------5-----------------|
Db|--2------------------------------------------------------------------------|
                                                                              
[Verse 1] 
(Guitar 2) 
(Clean STRUM)                                               
Eb|---------------------------------------------------------------------------|
Bb|--12----------------13----12-----------------------------------------------|
Gb|---x-----------------x-----x-------12--------------------14----------------|
Db|---9----------------10-----9-------12--------------------14----------------|
Ab|-----------------------------------10--------------------12----------------|
Db|---------------------------------------------------------------------------|
                                                                              
[Verse 1] 
(Guitar 3) 
(Clean)                                                     
Eb|---------------------------------------------------------19----------------|
Bb|-------------------------------20--19--------17----------------------------|
Gb|---------------------------------------------------------------------------|
Db|---------------------------------------------------------------------------|
Ab|---------------------------------------------------------------------------|
Db|---------------------------------------------------------------------------|

[Verse 1] 
(Guitar 1) 
(Distorted & palm muted)
(x2)
Eb|---------------------------------------------------------------------------|
Bb|---------------------------------------------------------------------------|
Gb|---------------------------------------------------------------------------|
Db|-----------------------------------5---------5-----------7------7------7---|
Ab|--3-2-0-2--0-3-2-0-2--0-5-0-3-0----3---------3-----------5------5------5---|
Db|--3-2-0-2--0-3-2-0-2--0-5-0-3-0--------------------------------------------|
                                                                              
[Verse 1] 
(Guitar 2) 
(Clean STRUM)                                               
Eb|---------------------------------------------------------------------------|
Bb|--12----------------13----12-----------------------------------------------|
Gb|---x-----------------x-----x-------12--------------------14----------------|
Db|---9----------------10-----9-------12--------------------14----------------|
Ab|-----------------------------------10--------------------12----------------|
Db|---------------------------------------------------------------------------|
                                                                              
[Verse 1] 
(Guitar 3) 
(Distorted)                                                 
Eb|---------------------------------------------------------19----------------|
Bb|-----------------------------------19--------17----------------------------|
Gb|---------------------------------------------------------------------------|
Db|---------------------------------------------------------------------------|
Ab|---------------------------------------------------------------------------|
Db|---------------------------------------------------------------------------|

[Chorus] 
(Guitar 1) 
(Distorted)
(x2)
Eb|---------0-----------------------0-----------------------------------------|
Bb|---------0-----------------------0-----------------------------------------|
Gb|--4---------------------------------------0-0-0-0-0-0-0-0-4-4-4-4-4-4-4----|
Db|--2-----------------------5---------------2-2-2-2-2-2-2-2-4-4-4-4-4-4-4-0--|
Ab|--2-----------------------5---------------3-3-3-3-3-3-3-3-2-2-2-2-2-2-2-0--|
Db|--2-----------------------5---------------------------------------------0--|
                                                                              
[Chorus] 
(Guitar 2) 
(Clean)                                                      
Eb|------------------------------------------7-7-7-8-8-5-5-5------------------|
Bb|----------------------------------------------------------7-7-7-7-8-7-8-7--|
Gb|---------------------------------------------------------------------------|
Db|---------------------------------------------------------------------------|
Ab|---------------------------------------------------------------------------|
Db|---------------------------------------------------------------------------|

[Post-Chorus] 
(Guitars 1 & 2) 
(Distorted)
Eb|---------------------------------------------------------------------------|
Bb|---------------------------------------------------------------------------|
Gb|---------------------------------------------------------------------------|
Db|-----------------------------3-3-0-0---------------------------------------|
Ab|--3\2---2--2--0--2---2--3--2----------3\2---2--2--0--2---2--5--0------3-3--|
Db|--3\2---2--2--0--2---2--3--2----------3\2---2--2--0--2---2--5--0--7-7------|

[Post-Chorus] 
(Guitars 1 & 2) 
(Distorted)
Eb|---------------------------------------------------------------------------|
Bb|---------------------------------------------------------------------------|
Gb|---------------------------------------------------------------------------|
Db|-----------------------------3-3-0-0---------------------------------------|
Ab|--3\2---2--2--0--2---2--3--2----------3\2---2--2--0--2---2--5--0---3\2-----|
Db|--3\2---2--2--0--2---2--3--2----------3\2---2--2--0--2---2--5--0---3\2-----|

[Verse 2]
(Guitar 1)
Eb|-----------------------------------3---------3-----------5-----------------|
Bb|-----------------------------------3---------3-----------5-----------------|
Gb|-----------------------------------5---------4-----------7-----------------|
Db|--(2)------------------------------5---------5-----------7-----------------|
Ab|--(2)------------------------------3---------3-----------5-----------------|
Db|--(2)----------------------------------------------------------------------|
      ^-- Fade out                    ^-- Switch to clean (start strumming)   
                                                                              
[Verse 2] 
(Guitar 2) 
(Clean STRUM)                                               
Eb|---------------------------------------------------------------------------|
Bb|--12----------------13----12-----------------------------------------------|
Gb|---x-----------------x-----x-------12--------------------14----------------|
Db|---9----------------10-----9-------12--------------------14----------------|
Ab|-----------------------------------10--------------------12----------------|
Db|---------------------------------------------------------------------------|
                                                                              
[Verse 2] 
(Guitar 3) 
(Clean)                                                     
Eb|---------------------------------------------------------19----------------|
Bb|-------------------------------20--19--------17----------------------------|
Gb|---------------------------------------------------------------------------|
Db|---------------------------------------------------------------------------|
Ab|---------------------------------------------------------------------------|
Db|---------------------------------------------------------------------------|

[Verse 2] 
(Guitar 1) 
(Clean STRUM)
Eb|-----------------------------------3---------3-----------5-----------------|
Bb|-----------------------------------3---------3-----------5-----------------|
Gb|--4--------------------------------5---------4-----------7-----------------|
Db|--2--------------------------------5---------5-----------7-----------------|
Ab|--2--------------------------------3---------3-----------5-----------------|
Db|--2------------------------------------------------------------------------|
                                                                              
[Verse 2] 
(Guitar 2) 
(Clean STRUM)                                               
Eb|---------------------------------------------------------------------------|
Bb|--12----------------13----12-----------------------------------------------|
Gb|---x-----------------x-----x-------12--------------------14----------------|
Db|---9----------------10-----9-------12--------------------14----------------|
Ab|-----------------------------------10--------------------12----------------|
Db|---------------------------------------------------------------------------|
                                                                              
[Verse 2] 
(Guitar 3) 
(Clean)                                                     
Eb|---------------------------------------------------------19----------------|
Bb|-------------------------------20--19--------17----------------------------|
Gb|---------------------------------------------------------------------------|
Db|---------------------------------------------------------------------------|
Ab|---------------------------------------------------------------------------|
Db|---------------------------------------------------------------------------|

[Verse 2] 
(Guitar 1) 
(Distorted & palm muted)
(x2)
Eb|---------------------------------------------------------------------------|
Bb|---------------------------------------------------------------------------|
Gb|---------------------------------------------------------------------------|
Db|-----------------------------------5---------5-----------7------7------7---|
Ab|--3-2-0-2--0-3-2-0-2--0-5-0-3-0----3---------3-----------5------5------5---|
Db|--3-2-0-2--0-3-2-0-2--0-5-0-3-0--------------------------------------------|
                                                                              
[Verse 2] 
(Guitar 2)
(Clean STRUM)                                               
Eb|---------------------------------------------------------------------------|
Bb|--12----------------13----12-----------------------------------------------|
Gb|---x-----------------x-----x-------12--------------------14----------------|
Db|---9----------------10-----9-------12--------------------14----------------|
Ab|-----------------------------------10--------------------12----------------|
Db|---------------------------------------------------------------------------|
                                                                              
[Verse 2] 
(Guitar 3) 
(Distorted)                                                 
Eb|---------------------------------------------------------19----------------|
Bb|-----------------------------------19--------17----------------------------|
Gb|---------------------------------------------------------------------------|
Db|---------------------------------------------------------------------------|
Ab|---------------------------------------------------------------------------|
Db|---------------------------------------------------------------------------|

[Chorus] 
(Guitar 1)
(Distorted)
(x2)
Eb|---------0-----------------------0-----------------------------------------|
Bb|---------0-----------------------0-----------------------------------------|
Gb|--4---------------------------------------0-0-0-0-0-0-0-0-4-4-4-4-4-4-4----|
Db|--2-----------------------5---------------2-2-2-2-2-2-2-2-4-4-4-4-4-4-4-0--|
Ab|--2-----------------------5---------------3-3-3-3-3-3-3-3-2-2-2-2-2-2-2-0--|
Db|--2-----------------------5---------------------------------------------0--|
                                                                              
[Chorus] 
(Guitar 2) 
(Clean)                                                      
Eb|------------------------------------------7-7-7-8-8-5-5-5------------------|
Bb|----------------------------------------------------------7-7-7-7-8-7-8-7--|
Gb|---------------------------------------------------------------------------|
Db|---------------------------------------------------------------------------|
Ab|---------------------------------------------------------------------------|
Db|---------------------------------------------------------------------------|

[Bridge] 
(Guitar 1) 
(Distorted) 
(x2)
Eb|---------------------------------------------------------------------------|
Bb|---------------------------------------------------------------------------|
Gb|--0-0-0-0--0-0-0-0--------------------0-0-0-0--0-0-0-0---------------------|
Db|--2-2-2-2--2-2-2-2--2-2-2-2--2-2-2-2--2-2-2-2--2-2-2-2--5-5-5-5--4-4-4-4---|
Ab|--3-3-3-3--3-3-3-3--2-2-2-2--2-2-2-2--3-3-3-3--3-3-3-3--5-5-5-5--5-5-5-5---|
Db|--------------------2-2-2-2--2-2-2-2--------------------5-5-5-5--4-4-4-4---|

[Bridge] 
(Guitar 1) 
(Distorted)
Eb|---------------------------------------------------------------------------|
Bb|---------------------------------------------------------------------------|
Gb|--0-0-0-0--0-0-0-0--4-4-4-4--4-4-4-----------------------------------------|
Db|--2-2-2-2--2-2-2-2--4-4-4-4--4-4-4----0------------------------------------|
Ab|--3-3-3-3--3-3-3-3--2-2-2-2--2-2-2----0------------------------------------|
Db|--------------------------------------0------------------------------------|
                                                                              
[Bridge] 
(Guitar 2) 
(Clean)                                                      
Eb|---------------------------------------------------------------------------|
Bb|----------------------7---7-7/8-7---7-8------------------------------------|
Gb|--------------------8---8---------9---9------------------------------------|
Db|---------------------------------------------------------------------------|
Ab|---------------------------------------------------------------------------|
Db|---------------------------------------------------------------------------|

[Chorus] 
(Guitar 1) 
(Distorted)
Eb|---------------------------------------------------------------------------|
Bb|---------------------------------------------------------------------------|
Gb|--4---------------------------------------0-0-0-0-0-0-0-0-4-4-4-4-4-4-4----|
Db|--2-----------------------5---------------2-2-2-2-2-2-2-2-4-4-4-4-4-4-4-0--|
Ab|--2-----------------------5---------------3-3-3-3-3-3-3-3-2-2-2-2-2-2-2-0--|
Db|--2-----------------------5---------------------------------------------0--|
                                                                              
[Chorus] 
(Guitar 2) 
(Clean)                                                      
Eb|------------------------------------------7-7-7-8-8-5-5-5------------------|
Bb|----------------------------------------------------------7-7-7-7-8-7-8-7--|
Gb|---------------------------------------------------------------------------|
Db|---------------------------------------------------------------------------|
Ab|---------------------------------------------------------------------------|
Db|---------------------------------------------------------------------------|

[Chorus] 
(Guitar 1) 
(Distorted)
Eb|---------0-----------------------0-----------------------------------------|
Bb|---------0-----------------------0-----------------------------------------|
Gb|--4---------------------------------------0-0-0-0-0-0-0-0-4-4-4-4-4-4-4----|
Db|--2-----------------------5---------------2-2-2-2-2-2-2-2-4-4-4-4-4-4-4-0--|
Ab|--2-----------------------5---------------3-3-3-3-3-3-3-3-2-2-2-2-2-2-2-0--|
Db|--2-----------------------5---------------------------------------------0--|
                                                                              
[Chorus] 
(Guitar 2) 
(Clean)                                                      
Eb|------------------------------------------7-7-7-8-8-5-5-5------------------|
Bb|----------------------------------------------------------7-7-7-7-8-7-8-7--|
Gb|---------------------------------------------------------------------------|
Db|---------------------------------------------------------------------------|
Ab|---------------------------------------------------------------------------|
Db|---------------------------------------------------------------------------|

[Outro/Chorus] 
(Guitar 1) 
(Distorted) 
(x2)
Eb|---------0-----------------------0-----------------------------------------|
Bb|---------0-----------------------1-----------------------------------------|
Gb|--4-----------------------0------0------------------------4-4-4-4-4-4-4----|
Db|--2-----------------------2---------------5-5-5-5-5-5-5-5-4-4-4-4-4-4-4-0--|
Ab|--2-----------------------3---------------5-5-5-5-5-5-5-5-2-2-2-2-2-2-2-0--|
Db|--2---------------------------------------5-5-5-5-5-5-5-5---------------0--|
                                                                              
[Outro/Chorus] 
(Guitar 2) 
(Clean)                                                
Eb|------------------------------------------7-7-7-8-8-5-5-5------------------|
Bb|----------------------------------------------------------7-7-7-7-8-7-8-7--|
Gb|---------------------------------------------------------------------------|
Db|---------------------------------------------------------------------------|
Ab|---------------------------------------------------------------------------|
Db|---------------------------------------------------------------------------|

[Outro] 
(Guitar 1) 
(Distorted)
Eb|---------------------------------------------------------------------------|
Bb|----------------------------------------3--0-------------------------------|
Gb|--0-0-0-0-0-0-0-0--0-0--4--0-0--4------------------------------------------|
Db|--2-2-2-2-2-2-2-2--2-2--4--2-2--4------------------------------------------|
Ab|--3-3-3-3-3-3-3-3--3-3--2--3-3--2----3-------------------------------------|
Db|---------------------------------------------------------------------------|

11. Song: without you

Tuning Db Ab Db Gb Bb Eb

[Intro] 
(Guitar 1) 
(Distorted)
Eb|---------------------------------------------------------------------------|
Bb|---------------------------------------------------------------------------|
Gb|-----------------------------------------x-x-------------------------------|
Db|--4--4--4--4--4-4--7--7--7--7--7-7--0--0-x-x-0--0--0-0--2--2--2--2-x-0--4--|
Ab|--4--4--4--4--4-4--7--7--7--7--7-7--0--0-x-x-0--0--0-0--2--2--2--2-x-0--4--|
Db|--4--4--4--4--4-4--7--7--7--7--7-7--0--0-x-x-0--0--0-0--2--2--2--2-x-0--4--|
                                                                              
[Intro] 
(Guitar 2) 
(Distorted)                                                   
Eb|------------------------------------------------------------------------0--|
Bb|-----7-9-10-9---------7-9-10-9----------7-9--10-9-7--------9---10---9---5--|
Gb|--6-----------9----6-----------9----7-------------------9----9----------6--|
Db|---------------------------------------------------------------------------|
Ab|---------------------------------------------------------------------------|
Db|---------------------------------------------------------------------------|

[Verse 1] 
(Guitar 1) 
(Distorted)
Eb|---------------------------------------------------------------------------|
Bb|---------------------------------------------------------------------------|
Gb|---------------------------------------------------------------------------|
Db|--(4)----------------------------------------------------------------------|
Ab|--(4)----------------------------------------------------------------------|
Db|--(4)----------------------------------------------------------------------|
                                                                              
[Verse 1] 
(Guitar 2) 
(Low Distorted)                                             
Eb|--(0)----------------------------------------------------------------------|
Bb|--(5)--------------------------------5-------------0-----------------------|
Gb|--(6)---------------------------------------6----------6-------------------|
Db|---------------------------------------------------------------------------|
Ab|---------------------------------------------------------------------------|
Db|---------------------------------------------------------------------------|

[Verse 1] 
(Guitar 2) 
(Low Distorted)
Eb|---------------------------------------------------------------------------|
Bb|--5---------------------------------5-------------0------------------------|
Gb|---------6---------------------------------6----------6--------------------|
Db|---------------------------------------------------------------------------|
Ab|---------------------------------------------------------------------------|
Db|---------------------------------------------------------------------------|

[Pre-Chorus]
(Guitar 1) 
(Distorted)
Eb|---------------------------------------------------------------------------|
Bb|---------------------------------------------------------------------------|
Gb|---------------------------------------------------2-----------------------|
Db|--x-x-0--------------2--------------4--------------2----------2------------|
Ab|--x-x-0--------------2--------------4--------------0----------2------------|
Db|--x-x-0--------------2--------------4-------------------------2------------|
                                                                              
[Pre-Chorus] 
(Guitar 2) 
(Low Distortion)                                         
Eb|----------------------------------------0----------------------------------|
Bb|--------------2----------0---2--------------2----------3---2---------------|
Gb|----------2----------------------------------------------------------------|
Db|------0--------------2--------------4--------------------------------------|
Ab|---------------------------------------------------0--------------2---4----|
Db|---------------------------------------------------------------------------|

[Pre-Chorus]
(Guitar 1) 
(Distorted)
Eb|---------------------------------------------------------------------------|
Bb|---------------------------------------------------------------------------|
Gb|-----------------------------------------------2---------------------------|
Db|--0--------------2--------------4--------------2----------2----------------|
Ab|--0--------------2--------------4--------------0----------2----------------|
Db|--0--------------2--------------4-------------------------2----------------|
                                                                              
[Pre-Chorus] 
(Guitar 2) 
(Low Distortion)                                         
Eb|------------------------------------0--------------------------------------|
Bb|----------2----------0---2--------------2----------3---2-------------------|
Gb|------2--------------------------------------------------------------------|
Db|--0--------------2--------------4------------------------------------------|
Ab|-----------------------------------------------0--------------2---4--------|
Db|---------------------------------------------------------------------------|

[Pre-Chorus] 
(Guitar 1)
(Distorted)
Eb|---------------------------------------------------------------------------|
Bb|---------------------------------------------------------------------------|
Gb|---------------------------------------------------------------------------|
Db|--0--------------2---------------------------------------------------------|
Ab|--0--------------2---------------------------------------------------------|
Db|--0--------------2---------------------------------------------------------|
                                                                              
[Pre-Chorus] 
(Guitar 2)
(Low Distortion)                                         
Eb|---------------------------------------------------------------------------|
Bb|----------2----------0---2-------------------------------------------------|
Gb|------2----------------------2---1-----------------------------------------|
Db|--0--------------2---------------------------------------------------------|
Ab|---------------------------------------------------------------------------|
Db|---------------------------------------------------------------------------|

[Chorus] 
(Guitar 1) 
(Distorted) 
(x2)
Eb|---------------------------------------------------------------------------|
Bb|---------------------------------------------------------------------------|
Gb|------------------------------------2--2--2--2--2--------------------------|
Db|--4--4--4--4--4----0--0--0--0--0----2--2--2--2--2----2--2--2--2------0-----|
Ab|--4--4--4--4--4----0--0--0--0--0----0--0--0--0--0----2--2--2--2------0-----|
Db|--4--4--4--4--4----0--0--0--0--0---------------------2--2--2--2------0-----|
                                                                              
[Chorus]
(Guitar 2) 
(Low Distortion)                                             
Eb|--------9--9--9-9--------10-10-1010-12-12----------------------------------|
Bb|--7--7-------------10-10------------------10-10-1010-12-12-9--9--9-9-------|
Gb|---------------------------------------------------------------------------|
Db|---------------------------------------------------------------------------|
Ab|---------------------------------------------------------------------------|
Db|---------------------------------------------------------------------------|

[Post-Chorus] 
(Guitar 1)
(Distorted)
Eb|---------------------------------------------------------------------------|
Bb|---------------------------------------------------------------------------|
Gb|---------------------------------------------------------------------------|
Db|--4---4---x--x--4---4---4--4-----7----7----0--------x---2--------4---------|
Ab|--4---4---x--x--4---4---4--4-----7----7----0--------x---2--------4---------|
Db|--4---4---x--x--4---4---4--4-----7----7----0--------x---2--------4---------|
                                                                              
[Post-Chorus] 
(Guitar 2) 
(Distorted)                                             
Eb|-----------------------------------------------------------------0---------|
Bb|------7---9--10---9-------------------10---7---------------------5---------|
Gb|--6-------------------9----------6-------------------------------6---------|
Db|---------------------------------------------------------------------------|
Ab|---------------------------------------------------------------------------|
Db|---------------------------------------------------------------------------|

[Verse 2] 
(Guitar 1)
(Distorted)
Eb|---------------------------------------------------------------------------|
Bb|---------------------------------------------------------------------------|
Gb|---------------------------------------------------------------------------|
Db|--(4)----------------------------------------------------------------------|
Ab|--(4)----------------------------------------------------------------------|
Db|--(4)----------------------------------------------------------------------|
                                                                              
[Verse 2] 
(Guitar 2) 
(Low Distorted)                                             
Eb|--(0)----------------------------------------------------------------------|
Bb|--(5)--------------------------------5-------------0-----------------------|
Gb|--(6)---------------------------------------6----------6-------------------|
Db|---------------------------------------------------------------------------|
Ab|---------------------------------------------------------------------------|
Db|---------------------------------------------------------------------------|

[Verse 2]
(Guitar 2) 
(Low Distorted)
Eb|---------------------------------------------------------------------------|
Bb|--5---------------------------------5-------------0------------------------|
Gb|---------6---------------------------------6----------6--------------------|
Db|---------------------------------------------------------------------------|
Ab|---------------------------------------------------------------------------|
Db|---------------------------------------------------------------------------|

[Pre-Chorus] 
(Guitar 1) 
(Distorted)
Eb|---------------------------------------------------------------------------|
Bb|---------------------------------------------------------------------------|
Gb|---------------------------------------------------2-----------------------|
Db|--x-x-0--------------2--------------4--------------2----------2------------|
Ab|--x-x-0--------------2--------------4--------------0----------2------------|
Db|--x-x-0--------------2--------------4-------------------------2------------|
                                                                              
[Pre-Chorus]
(Guitar 2)
(Low Distortion)                                         
Eb|----------------------------------------0----------------------------------|
Bb|--------------2----------0---2--------------2----------3---2---------------|
Gb|----------2----------------------------------------------------------------|
Db|------0--------------2--------------4--------------------------------------|
Ab|---------------------------------------------------0--------------2---4----|
Db|---------------------------------------------------------------------------|

[Pre-Chorus] 
(Guitar 1) 
(Distorted)
Eb|---------------------------------------------------------------------------|
Bb|---------------------------------------------------------------------------|
Gb|---------------------------------------------------------------------------|
Db|--0--------------2---------------------------------------------------------|
Ab|--0--------------2---------------------------------------------------------|
Db|--0--------------2---------------------------------------------------------|
                                                                              
[Pre-Chorus] 
(Guitar 2) 
(Low Distortion)                                         
Eb|---------------------------------------------------------------------------|
Bb|----------2----------0---2-------------------------------------------------|
Gb|------2----------------------2---1-----------------------------------------|
Db|--0--------------2---------------------------------------------------------|
Ab|---------------------------------------------------------------------------|
Db|---------------------------------------------------------------------------|

[Chorus] 
(Guitar 1) 
(Distorted) 
(x2)
Eb|---------------------------------------------------------------------------|
Bb|---------------------------------------------------------------------------|
Gb|------------------------------------2--2--2--2--2--------------------------|
Db|--4--4--4--4--4----0--0--0--0--0----2--2--2--2--2----2--2--2--2------0-----|
Ab|--4--4--4--4--4----0--0--0--0--0----0--0--0--0--0----2--2--2--2------0-----|
Db|--4--4--4--4--4----0--0--0--0--0---------------------2--2--2--2------0-----|
                                                                              
[Chorus] 
(Guitar 2) 
(Low Distortion)                                             
Eb|--------9--9--9-9--------10-10-1010-12-12----------------------------------|
Bb|--7--7-------------10-10------------------10-10-1010-12-12-9--9--9-9-------|
Gb|---------------------------------------------------------------------------|
Db|---------------------------------------------------------------------------|
Ab|---------------------------------------------------------------------------|
Db|---------------------------------------------------------------------------|

[Bridge]
(Guitar 1) 
(Distorted)
Eb|---------------------------------------------------------------------------|
Bb|---------------------------------------------------------------------------|
Gb|---------------------------------------------------------------------------|
Db|--4--4--x--x--2--4---2------0--0--0-0--0---4--4--4-4--4---0--0--0-0--0-----|
Ab|--4--4--x--x--2--4---2------0--0--0-0--0---4--4--4-4--4---0--0--0-0--0-----|
Db|--4--4--x--x--2--4---2------0--0--0-0--0---4--4--4-4--4---0--0--0-0--0-----|

[Bridge] 
(Guitar 1) 
(Distorted)
Eb|---------------------------------------------------------------------------|
Bb|---------------------------------------------------------------------------|
Gb|---------------------------------------------------------------------------|
Db|--2--2--2-2--2---0--0--0-0--0---4--4--4-4--4---0--0--0-0--0---2--2--2-2--2-|
Ab|--2--2--2-2--2---0--0--0-0--0---4--4--4-4--4---0--0--0-0--0---2--2--2-2--2-|
Db|--2--2--2-2--2---0--0--0-0--0---4--4--4-4--4---0--0--0-0--0---2--2--2-2--2-|

[Chorus] 
(Guitar 1) 
(Distorted)
(x2)
Eb|---------------------------------------------------------------------------|
Bb|---------------------------------------------------------------------------|
Gb|------------------------------------2--2--2--2--2--------------------------|
Db|--4--4--4--4--4----0--0--0--0--0----2--2--2--2--2----2--2--2--2------0-----|
Ab|--4--4--4--4--4----0--0--0--0--0----0--0--0--0--0----2--2--2--2------0-----|
Db|--4--4--4--4--4----0--0--0--0--0---------------------2--2--2--2------0-----|
                                                                              
[Chorus] 
(Guitar 2)
(Low Distortion)                                             
Eb|--------9--9--9-9--------10-10-1010-12-12----------------------------------|
Bb|--7--7-------------10-10------------------10-10-1010-12-12-9--9--9-9-------|
Gb|---------------------------------------------------------------------------|
Db|---------------------------------------------------------------------------|
Ab|---------------------------------------------------------------------------|
Db|---------------------------------------------------------------------------|

[Outro/Chorus] 
(Guitar 1) 
(Distorted) 
(x2)
Eb|---------------------------------------------------------------------------|
Bb|---------------------------------------------------------------------------|
Gb|------------------------------------2--2--2--2--2--------------------------|
Db|--4--4--4--4--4----0--0--0--0--0----2--2--2--2--2----2--2--2--2--2---------|
Ab|--4--4--4--4--4----0--0--0--0--0----0--0--0--0--0----2--2--2--2--2---------|
Db|--4--4--4--4--4----0--0--0--0--0---------------------2--2--2--2--2---------|
                                                                              
[Outro/Chorus] 
(Guitar 2) 
(Low Distortion)                                       
Eb|--------9--9--9-9--------10-10-1010-12-12----------------------------------|
Bb|--7--7-------------10-10------------------10-10-1010-12-12-9--9--9---------|
Gb|---------------------------------------------------------------------------|
Db|---------------------------------------------------------------------------|
Ab|---------------------------------------------------------------------------|
Db|---------------------------------------------------------------------------|


************************************

| b    Bend
| /    Slide up
| \    Slide down
| p    Pull-off
| (n)  Ghost note
| x    Dead note
| h    Hammer-on
| r    Release
| *    Natural harmonic
| ~    Vibrato
| .    Staccato

************************************
Suggest correction
comments
print report bad tab
3 comments total.
-1 reply
HH_Emo_666 242 Nov 01, 2011 04:49 AM

You should of just asked U B the Band. Most of the songs are by him.

0 reply
wwwnoobcom 171 Nov 01, 2011 05:23 AM

Ye, i said in the beginning, he can post a comment here if he wants his tabs removed from the album tab. but hopefully he allows them to stay. the reason i didn't ask the writers before is because i don't have emails and don't know where to find them.

0 reply
norsvolos 10 Nov 08, 2015 03:36 PM

Lack of formatting. It's very glitched please fix :) I love it but it crashes every time I open a pro tab so ya.

guest
You may want to rate the tab now too:
select rating
Wanna post a correction for this tab? Suggest correction