Oops, an error
Loading. Please wait.
We have an official Diary Of Jane tab made by UG professional guitarists. Check out the tab »
×

Diary Of Jane tab

411,358 views 162 this week
143 commentsread comments
1 2 3 4 5
x 106
add to favorites
×
Save as Personal and add changes to this tab that will be seen only by you. Learn more ›
×
You can save this tab as Personal to edit and correct it or add notes. All changes will be seen only by you. Learn more »
launch autoscroll
font size
0
reset
how to read this tab
guitar tuner
backing track
0:00
0:00
edit
Autoscroll
slow
fast
+/-
esc
set tempo
stop
Author
Breaking Benjamin
(The) Diary of Jane
Tabbed by U B the band
Tuning Bb F Bb Eb G C


[Intro]

Guitar 1 (Ben): 00:00 clean with Delay
 C|----------------------------------------------------8--8-----------|
 G|-----10-----10-----10-----10-----11-11-10----10-----------11----10-|
Eb|--7------7------7------7------7-----------7------7-----------7-----|
Bb|-------------------------------------------------------------------|
 F|-------------------------------------------------------------------|
Bb|-------------------------------------------------------------------|
                                   |Delay off|        |Delay off|     |
                                                                      |
Guitar 2 (Aaron) 00:00 Silent                                         |
 C|-------------------------------------------------------------------|
 G|-------------------------------------------------------------------|
Eb|-------------------------------------------------------------------|
Bb|-------------------------------------------------------------------|
 F|-------------------------------------------------------------------|
Bb|-------------------------------------------------------------------|

Guitar 1 (Ben): 00:05 clean with Delay 
 C|----------------------------------------------------8--8-----------|
 G|-----10-----10-----10-----10-----11-11-10----10-----------11----10-|
Eb|--7------7------7------7------7-----------7------7-----------7-----|
Bb|-------------------------------------------------------------------|
 F|-------------------------------------------------------------------|
Bb|-------------------------------------------------------------------|
                                   |Delay off|        |Delay off|     |
                                                                      |
Guitar 2 (Aaron): 00:05 with wah and distortion                       |
 C|-------------------------------------------------------------------|
 G|-------------------------------------------------------------------|
Eb|--7----------------------------------------------------------------|
Bb|-(0)---------------------------------------------------------------|
 F|--5----------------------------------------------------------------|
Bb|-------------------------------------------------------------------|

Guitar 1 (Ben): 00:10 clean with Delay
 C|----------------------------------------------------8--8-----------|
 G|-----10-----10-----10-----10-----11-11-10----10-----------11----10-|
Eb|--7------7------7------7------7-----------7------7-----------7-----|
Bb|-------------------------------------------------------------------|
 F|-------------------------------------------------------------------|
Bb|-------------------------------------------------------------------|
                                   |Delay off|        |Delay off|     |
                                                                      |
Guitar 2 (Aaron): 00:11 with wah and distortion                       |
 C|-------------------------------------------------------------------|
 G|-------------------------------------------------------------------|
Eb|--3----------------------------------------------------------------|
Bb|--x----------------------------------------------------------------|
 F|--1----------------------------------------------------------------|
Bb|-------------------------------------------------------------------|

Guitar 1: (Ben) 00:17
 C|-------------------8--8-----------------------------8--8-----------|
 G|-----10-----10-----------11----10-----10-----10-----------11----10-|
Eb|--7------7------7-----------7------7------7------7-----------7-----|
Bb|-------------------------------------------------------------------|
 F|-------------------------------------------------------------------|
Bb|-------------------------------------------------------------------|
                     |Delay off|                      |Delay off|     |
                                                                      |
Guitar 2: (Aaron) 00:17 with wah, the zeros are optional              |
 C|-------------------------------------------------------------------|
 G|-------------------------------------------------------------------|
Eb|--7--7--7--7--7-7-7-7-7-7--7/8---7--7--7--7--7-7-7-7-7--7--7--7----|
Bb|--0--0--0--0--0-0-0-0-0-0--0-----0--0--0--0--0-0-0-0-0--0--0--0----|
 F|--5--5--5--5--5-5-5-5-5-5--5/6---5--5--5--5--5-5-5-5-5--5--5--5----|
Bb|-------------------------------------------------------------------|

Guitar 1: 00:23 clean with Delay
 C|-------------------8--8--------------------------------------------|
 G|-----10-----10-----------11----10-----10-----10------10b(11)r(10)--|
Eb|--7------7------7-----------7------7------7------7-----------------|
Bb|-------------------------------------------------------------------|
 F|-------------------------------------------------------------------|
Bb|-------------------------------------------------------------------|
                     |Delay off|           Distortion--^--Delay off   |
                                                                      |
Guitar 2: 00:23 Distortion with wah, the zeros are optional           |
 C|-------------------------------------------------------------------|
 G|-------------------------------------------------------------------|
Eb|--7--7--7--7--7-7-7-7-7--7--7/8---7--7--7-7-7-7777-----------------|
Bb|--0--0--0--0--0-0-0-0-0--0--0-----0--0--0-0-0-0000---8---8---8-----|
 F|--5--5--5--5--5-5-5-5-5--5--5/6---5--5--5-5-5-5555---8---8---8-----|
Bb|-----------------------------------------------------8---8---8-----|
                                                       | wah off | 
Guitar 1: (Ben) 00:28 Distorted
 C|-------------------8--8--------------------------------------------|
 G|-----10-----10-----------11----10-----10-----10--------------------|
Eb|--7------7------7-----------7------7------7------7--9b(10)r(9)-----|
Bb|-------------------------------------------------------------------|
 F|-------------------------------------------------------------------|
Bb|-------------------------------------------------------------------|
                                                                      |
Guitar 3: (Ben studio fill in) 00:28 Distorted                        |
 C|-----17-----17-----20-20-18----17-----17-----17--------------------|
 G|--15-----15-----15----------15-----15-----15-----15-17b(18)r(17)---|
Eb|-------------------------------------------------------------------|
Bb|-------------------------------------------------------------------|
 F|-------------------------------------------------------------------|
Bb|-------------------------------------------------------------------|
                                                                      |
Guitar 2: (Aaron) 00:28 Distorted                                     |
 C|-------------------------------------------------------------------|
 G|-------------------------------------------------------------------|
Eb|-------------------------------------------------------------------|
Bb|-------------------------------------------------------------------|
 F|------------------3p0-----------------------------3p0--------------|
Bb|--0-0-5p0-0-7p3-0-----0-8p7-0-3p2-0-0-5p0-0-7p3-0-----0-8p7-0-3p2--|

Guitar 1: (Ben) 00:34 Distorted
 C|-------------------8--8--------------------------------------------|
 G|-----10-----10-----------11----10-----10-----10--------------------|
Eb|--7------7------7-----------7------7------7------7--9b(10)r(9)-----|
Bb|-------------------------------------------------------------------|
 F|-------------------------------------------------------------------|
Bb|-------------------------------------------------------------------|
                                                                      |
Guitar 3: (Ben) 00:34 Distorted                                       |
 C|-----17-----17-----20-20-18----17-----17-----17--------------------|
 G|--15-----15-----15----------15-----15-----15-----15-17b(18)r(17)---|
Eb|-------------------------------------------------------------------|
Bb|-------------------------------------------------------------------|
 F|-------------------------------------------------------------------|
Bb|-------------------------------------------------------------------|

                                                                      |
Guitar 2: (Aaron) 00:34 Distorted                                     |
 C|-------------------------------------------------------------------|
 G|-------------------------------------------------------------------|
Eb|-------------------------------------------------------------------|
Bb|---------------------------------------------------8---8---8-------|
 F|------------------3p0------------------------------8---8---8-------|
Bb|--0-0-5p0-0-7p3-0-----0-8p7-0-3p2-0-0-5p0-0-7p3-0--8---8---8-------|


[Verse 1]

Guitar 1 (Ben) 00:40
 C|-------------------------------------------------------------------|
 G|-------------------------------------------------------------------|
Eb|-------------------------------------------------------------------|
Bb|-----------------------------------------------------5--------8--8-|
 F|-----------------------------------------------------5---0-0--8--8-|
Bb|-----------------------------------------------------5---0-0--8--8-|x2
                                                            pmpm      |
                                                                      |
[Verse 1]

Guitar 2 (Aaron) 00:40                                       |
 C|-------------------------------------------------------------------|
 G|-------------------------------------------------------------------|
Eb|-------------------------------------------------------------------|
Bb|--------------5*------5*-----------------5*------5*--5--------8--8-|
 F|--0-0--0--0-0--5*-0-0--5*-0-0--0000--0-0--5*-0-0--5*-5---0-0--8--8-|
Bb|--0-0--0--0-0-----0-0-----0-0--0000--0-0-----0-0-----5---0-0--8--8-|x2
     pmpm pm pmpm    pmpm    pmpm pmpm  pmpm    pmpm        pmpm


[Chorus]

Guitar 1 (Ben) 00:57
 C|-------------------------------------------------------------------|
 G|-------------------------------------------------------------------|
Eb|-------------------------------------------------------------------|
Bb|--0------0------0----0----0----0------8------8----8----8----8--8---|
 F|--0------0------0----0----0----0------8------8----8----8----8--8---|
Bb|--0------0------0----0----0----0------8------8----8----8----8--8---|
      
                                                                |
[Chorus]

Guitar 2 (Aaron) 00:57                                        |
 C|--13-13--12-12--13-13--12-12--13-15---13-13--12-12--15-1515-1515---|
 G|---x--x---x--x---x--x---x--x---x--x----x--x---x--x---x--x-x--x-x---|
Eb|--10-10---9--9--10-10---9--9--10-12---10-10---9--9--12-1212-1212---|
Bb|-------------------------------------------------------------------|
 F|-------------------------------------------------------------------|
Bb|-------------------------------------------------------------------|


[Chorus]

Guitar 1 (Ben) 01:03
 C|-------------------------------------------------------------------|
 G|-------------------------------------------------------------------|
Eb|--10--10--10--10-10-10---9---9---9---9--9--9-----------------------|
Bb|--10--10--10--10-10-10---10--10--10--10-10-10----8--------8--------|
 F|--8---8---8---8--8--8----7---7---7---7--7--7-----8--------8--------|
Bb|-------------------------------------------------8--------8--------|
       
                                                               |
[Chorus]

Guitar 2 (Aaron) 01:03                                        |
 C|--17-17-17-17-17/18\17---15-15-15-15--15-15/1717-10101010-12121212-|
 G|---x--x--x--x--x--x--x----x--x--x--x---x--x--x-x--x-x-x-x--x-x-x-x-|
Eb|--14-14-14-14-14/15\14---12-12-12-12--12-12/1414--7-7-7-7--9-9-9-9-|
Bb|-------------------------------------------------------------------|
 F|-------------------------------------------------------------------|
Bb|-------------------------------------------------------------------|


[Chorus]

Guitar 1 (Ben) 01:10
 C|-------------------------------------------------------------------|
 G|-------------------------------------------------------------------|
Eb|-------------------------------------------------------------------|
Bb|--8--------8----------10-------10-------10-------10----------------|
 F|--8--------8----------10-------10-------10-------10----------------|
Bb|--8--------8----------10-------10-------10-------10----------------|
        
                                                              |
[Chorus]

Guitar 2 (Aaron) 01:10                                        |
 C|--17171717-15151515---13131313-15151515-18181818-171717------------|
 G|---x-x-x-x--x-x-x-x----x-x-x-x--x-x-x-x--x-x-x-x--x-x-x------------|
Eb|--14141414-12121212----9-9-9-9-12121212-15151515-141414------------|
Bb|-------------------------------------------------------------------|
 F|-------------------------------------------------------------------|
Bb|-------------------------------------------------------------------|

Guitar 1: (Ben) 01:14 Distorted
 C|-------------------8--8--------------------------------------------|
 G|-----10-----10-----------11----10-----10-----10--------------------|
Eb|--7------7------7-----------7------7------7------7--9b(10)r(9)-----|
Bb|-------------------------------------------------------------------|
 F|-------------------------------------------------------------------|
Bb|-------------------------------------------------------------------|
                                                                      |
Guitar 3: (Ben) 01:14 Distorted                                       |
 C|-----17-----17-----20-20-18----17-----17-----17--------------------|
 G|--15-----15-----15----------15-----15-----15-----15-17b(18)r(17)---|
Eb|-------------------------------------------------------------------|
Bb|-------------------------------------------------------------------|
 F|-------------------------------------------------------------------|
Bb|-------------------------------------------------------------------|
                                                                      |
Guitar 2: (Aaron) 01:14 Distorted                                     |
 C|-------------------------------------------------------------------|
 G|-------------------------------------------------------------------|
Eb|-------------------------------------------------------------------|
Bb|---------------------------------------------------8---8---8-------|
 F|------------------3p0------------------------------8---8---8-------|
Bb|--0-0-5p0-0-7p3-0-----0-8p7-0-3p2-0-0-5p0-0-7p3-0--8---8---8-------|


[Verse 2] 

Guitar 1 (Ben) 01:20
 C|-------------------------------------------------------------------|
 G|-------------------------------------------------------------------|
Eb|-------------------------------------------------------------------|
Bb|-----------------------------------------------------5--------8--8-|
 F|-----------------------------------------------------5---0-0--8--8-|
Bb|-----------------------------------------------------5---0-0--8--8-|
                                                            pmpm      |

[Verse]

Guitar 2 (Aaron) 01:20                                         |
 C|-------------------------------------------------------------------|
 G|-------------------------------------------------------------------|
Eb|-------------------------------------------------------------------|
Bb|--------------5*------5*-----------------5*------5*--5--------8--8-|
 F|--0-0--0--0-0--5*-0-0--5*-0-0--0000--0-0--5*-0-0--5*-5---0-0--8--8-|
Bb|--0-0--0--0-0-----0-0-----0-0--0000--0-0-----0-0-----5---0-0--8--8-|
     pmpm pm pmpm    pmpm    pmpm pmpm  pmpm    pmpm        pmpm


[Verse 2] 

Guitar 1 (Ben) 01:29
 C|-------------------------------------------------------------------|
 G|-------------------------------------------------------------------|
Eb|-------------------------------------------------------------------|
Bb|-----------------------------------------------------5------8--8---|
 F|-----------------------------------------------------5------8--8---|
Bb|-----------------------------------------------------5------8--8---|
                                                                      |

[Verse 2] 

Guitar 2 (Aaron) 01:29                                       |
 C|-------------------------------------------------------------------|
 G|-------------------------------------------------------------------|
Eb|-------------------------------------------------------------------|
Bb|--------------5*------5*-----------------5*------5*--5------8--8---|
 F|--0-0--0--0-0--5*-0-0--5*-0-0--0000--0-0--5*-0-0--5*-5------8--8---|
Bb|--0-0--0--0-0-----0-0-----0-0--0000--0-0-----0-0-----5------8--8---|
     pmpm pm pmpm    pmpm    pmpm pmpm  pmpm    pmpm


[Chorus]

Guitar 1 (Ben) 01:37/01:49
 C|-------------------------------------------------------------------|
 G|-------------------------------------------------------------------|
Eb|-------------------------------------------------------------------|
Bb|--0------0------0----0----0----0------8------8----8----8----8--8---|
 F|--0------0------0----0----0----0------8------8----8----8----8--8---|
Bb|--0------0------0----0----0----0------8------8----8----8----8--8---|
        
                                                              |
[Chorus]

Guitar 2 (Aaron) 01:37/01:49                                  |
 C|--13-13--12-12--13-13--12-12--13-15---13-13--12-12--15-1515-1515---|
 G|---x--x---x--x---x--x---x--x---x--x----x--x---x--x---x--x-x--x-x---|
Eb|--10-10---9--9--10-10---9--9--10-12---10-10---9--9--12-1212-1212---|
Bb|-------------------------------------------------------------------|
 F|-------------------------------------------------------------------|
Bb|-------------------------------------------------------------------|


[Chorus]

Guitar 1 (Ben) 01:43/01:55
 C|-------------------------------------------------------------------|
 G|-------------------------------------------------------------------|
Eb|--10---10---10---10--10--10---9----9----9----9---9---9-------------|
Bb|--10---10---10---10--10--10---10---10---10---10--10--10------------|
 F|--8----8----8----8---8---8----7----7----7----7---7---7-------------|
Bb|-------------------------------------------------------------------|
        
                                                              |
[Chorus]

guitar 2 (Aaron) 01:43/01:55                                  |
 C|--17---17---17---17-17/18\17--15---15---15---15--15-15/17-17-------|
 G|---x----x----x----x--x--x--x---x----x----x----x---x--x--x--x-------|
Eb|--14---14---14---14-14/15\14--12---12---12---12--12-12/14-14-------|
Bb|-------------------------------------------------------------------|
 F|-------------------------------------------------------------------|
Bb|-------------------------------------------------------------------|


[Chorus]

Guitar 1 (Ben) 02:00
 C|-------------------------------------------------------------------|
 G|-------------------------------------------------------------------|
Eb|-------------------------------------------------------------------|
Bb|--8-----8-----8-----8--------8-----8-----8-----8---8-8-------------|
 F|--8-----8-----8-----8--------8-----8-----8-----8---8-8-------------|
Bb|--8-----8-----8-----8--------8-----8-----8-----8---8-8-------------|
           
                                                           |
[Chorus]

Guitar 2 (Aaron) 02:00                                        |
 C|--10-10-10-10----12-12-12-12----17-17-17-17----15-15-15-15---------|
 G|---x--x--x--x-----x--x--x--x-----x--x--x--x-----x--x--x--x---------|
Eb|---7--7--7--7-----9--9--9--9----14-14-14-14----12-12-12-12---------|
Bb|-------------------------------------------------------------------|
 F|-------------------------------------------------------------------|
Bb|-------------------------------------------------------------------|


[Chorus]

Guitar 1 (Ben) 02:03
 C|-------------------------------------------------------------------|
 G|-------------------------------------------------------------------|
Eb|-------------------------------------------------------------------|
Bb|--10----10----10----10-------10----10----10----10--1010------------|
 F|--10----10----10----10-------10----10----10----10--1010------------|
Bb|--10----10----10----10-------10----10----10----10--1010------------|
       
                                                               |
[Chorus]

Guitar 2 (Aaron) 02:03                                        |
 C|--13-13-13-13----15-15-15-15----18-18-18-18----17-17-17-17---------|
 G|---x--x--x--x-----x--x--x--x-----x--x--x--x-----x--x--x--x---------|
Eb|---9--9--9--9----12-12-12-12----15-15-15-15----14-14-14-14---------|
Bb|-------------------------------------------------------------------|
 F|-------------------------------------------------------------------|
Bb|-------------------------------------------------------------------|


[Bridge/Solo]

Guitar 1 (Ben) 02:06
 C|-------------------------------------------------------------------|
 G|-------------------------------------------------------------------|
Eb|-------------------------------------------------------------------|
Bb|-------------------------------------------------------------------|
 F|--0-0--0--0-0-0--0-0-0--0-0---2/3--0-0--0--0-0-0--0-0-0--0-0-0---1-|
Bb|--0-0--0--0-0-0--0-0-0--0-0---2/3--0-0--0--0-0-0--0-0-0--0-0-0---1-|
     pmpm pm pmpmpm pmpmpm pmpm       pmpm pm pmpmpm pmpmpm pmpmpm    |
         
                                                             |
[Solo] 

Guitar 2 (Aaron) 02:06                                          |
 C|-------------------------------------------------------------------|
 G|--15--17-----------------------------------13----------------------|
Eb|----------17-----------------11h12-------------12---\11------------|
Bb|-------------------------------------12-------------------12-------|
 F|-------------------------------------------------------------------|
Bb|-------------------------------------------------------------------|
                                        PH

[Bridge]

Guitar 1 (Ben) 02:12
 C|-------------------------------------------------------------------|
 G|-------------------------------------------------------------------|
Eb|-------------------------------------------------------------------|
Bb|-------------------------------------------------------------------|
 F|--0-0--0--0-0-0--0-0-0--0-0---2/3--0-0--0-0--------8p7-0-5h7-0-3\2-|
Bb|--0-0--0--0-0-0--0-0-0--0-0---2/3--0-0--0-0--------8p7-0-5h7-0-3\2-|
     pmpm pm pmpmpm pmpmpm pmpm       pmpm pmpm                       |
                                                                      |
Solo: Guitar 2 (Aaron) 02:12                                          |
 C|---------------------------------------------10--10----------------|
 G|--15--17----------------------------------13-13b-13b---------------|
Eb|----------17-----------------11h12---14----------------------------|
Bb|-------------------------------------------------------------------|
 F|-------------------------------------------------------------------|
Bb|-------------------------------------------------------------------|
            Hold full step bend (Only bend G String)-^


[Bridge] 

Guitar 1 (Ben) 02:18
 C|-------------------------------------------------------------------|
 G|-------------------------------------------------------------------|
Eb|-------------------------------------------------------------------|
Bb|--3-----3-----3-----3-----3-----5-----5-----5-----5-----5----------|
 F|--3-----3-----3-----3-----3-----5-----5-----5-----5-----5----------|
Bb|--3-----3-----3-----3-----3-----5-----5-----5-----5-----5----------|
      
                                                                |
[Solo]

 Guitar 2 (Aaron) 02:18                                          |
 C|--------------------------------10---------------------------------|
 G|--10----------------------------13b(15)----------------------------|
Eb|--12b(14)-----------(12)-------------------------------------------|
Bb|-------------------------------------------------------------------|
 F|-------------------------------------------------------------------|
Bb|-------------------------------------------------------------------|
        Release bend--^


[Bridge] 

Guitar 1 (Ben) 02:23
 C|-------------------------------------------------------------------|
 G|-------------------------------------------------------------------|
Eb|-------------------------------------------------------------------|
Bb|-------------------------------------------------------------------|
 F|--0-0--0--0-0-0--0-0-0--0-0---2/3--0-0--0--0-0-0--0-0-0--0-0-0---5-|
Bb|--0-0--0--0-0-0--0-0-0--0-0---2/3--0-0--0--0-0-0--0-0-0--0-0-0---5-|
     pmpm pm pmpmpm pmpmpm pmpm       pmpm pm pmpmpm pmpmpm pmpmpm    |
      
                                                                |
[Solo]

Guitar 2 (Aaron) 02:23                                          |
 C|-------------------------------------------------------------------|
 G|--15---17---------17----------------------13-----------------------|
Eb|--19-------17-----17---------11h12--/14--------12---\11------------|
Bb|----------------------------------------------------------12-------|
 F|-------------------------------------------------------------------|
Bb|-------------------------------------------------------------------|


[Bridge]

Guitar 1 (Ben) 02:29
 C|-------------------------------------------------------------------|
 G|-------------------------------------------------------------------|
Eb|-------------------------------------------------------------------|
Bb|--3-----3-----3-----3-----3---3----5-----5-----5-----8-------------|
 F|--3-----3-----3-----3-----3---3----5-----5-----5-----8---8p7--5\3--|
Bb|--3-----3-----3-----3-----3---3----5-----5-----5-----8---8p7--5\3--|
                                                                      |

[Solo]

Guitar 2 (Aaron) 02:29                                          |
 C|--13----12-----13-------12--------15-----------13----15------------|
 G|--------13---------------------------------------------------------|
Eb|-------------------------------------------------------------------|
Bb|-------------------------------------------------------------------|
 F|-------------------------------------------------------------------|
Bb|-------------------------------------------------------------------|


[Chorus]

Guitar 1 (Ben) 02:35/02:46
 C|-------------------------------------------------------------------|
 G|-------------------------------------------------------------------|
Eb|-------------------------------------------------------------------|
Bb|--0------0------0----0----0----0------8------8----8----8----8--8---|
 F|--0------0------0----0----0----0------8------8----8----8----8--8---|
Bb|--0------0------0----0----0----0------8------8----8----8----8--8---|
       
                                                               |
[Chorus]
Guitar 2 (Aaron) 02:35/02:46                                  |
 C|--13-13--12-12--13-13--12-12--13-15---13-13--12-12--15-1515-1515---|
 G|---x--x---x--x---x--x---x--x---x--x----x--x---x--x---x--x-x--x-x---|
Eb|--10-10---9--9--10-10---9--9--10-12---10-10---9--9--12-1212-1212---|
Bb|-------------------------------------------------------------------|
 F|-------------------------------------------------------------------|
Bb|-------------------------------------------------------------------|
                                                                      |
Sound Effects at 02:36/02:47                                          |
 C|-------------------------------------------------------------------|
 G|-------------------------------------------------------------------|
Eb|---7-------------9----------10---------10--------12--------14------|
Bb|-------------------------------------------------------------------|
 F|-------------------------------------------------------------------|
Bb|-------------------------------------------------------------------|
      
     
[Chorus]

Guitar 1 (Ben) 02:41/02:52
 C|-------------------------------------------------------------------|
 G|-------------------------------------------------------------------|
Eb|--10---10---10---10--10--10---9----9----9----9---9---9-------------|
Bb|--10---10---10---10--10--10---10---10---10---10--10--10------------|
 F|--8----8----8----8---8---8----7----7----7----7---7---7-------------|
Bb|-------------------------------------------------------------------|
         
                                                             |
[Chorus]

Guitar 2 (Aaron) 02:41/02:52                                  |
 C|--17---17---17---17-17/18\17--15---15---15---15--15-15/17-17-------|
 G|---x----x----x----x--x--x--x---x----x----x----x---x--x--x--x-------|
Eb|--14---14---14---14-14/15\14--12---12---12---12--12-12/14-14-------|
Bb|-------------------------------------------------------------------|
 F|-------------------------------------------------------------------|
Bb|-------------------------------------------------------------------|
                                                                      |
Sound Effects at 02:42/02:53                                          |
 C|-------------------------------------------------------------------|
 G|-------------------------------------------------------------------|
Eb|--14--------12--------10-------12-------10-------9-----------------|
Bb|-------------------------------------------------------------------|
 F|-------------------------------------------------------------------|
Bb|-------------------------------------------------------------------|


[Outro]

 Guitar 1 (Ben) 02:58 Distorted
 C|-------------------8--8--------------------------------------------|
 G|-----10-----10-----------11----10-----10-----10--------------------|
Eb|--7------7------7-----------7------7------7------7--9b(10)r(9)-----|
Bb|-------------------------------------------------------------------|
 F|-------------------------------------------------------------------|
Bb|-------------------------------------------------------------------|
                                                                      |

[Outro]

Guitar 3 (Ben) 02:58 Distorted                                 |
 C|-----17-----17-----20-20-18----17-----17-----17--------------------|
 G|--15-----15-----15----------15-----15-----15-----15-17b(18)r(17)---|
Eb|-------------------------------------------------------------------|
Bb|-------------------------------------------------------------------|
 F|-------------------------------------------------------------------|
Bb|-------------------------------------------------------------------|
      
                                                                |
[Outro] 

Guitar 2 (Aaron) 02:58                                         |
 C|-------------------------------------------------------------------|
 G|-------------------------------------------------------------------|
Eb|-------------------------------------------------------------------|
Bb|-------------------------------------------------------------------|
 F|------------------3p0-----------------------------3p0--------------|
Bb|--0-0-5p0-0-7p3-0-----0-8p7-0-3p2-0-0-5p0-0-7p3-0-----0-8p7-0-3p2--|


[Outro] 

Guitar 1 (Ben) 03:04 Distorted
 C|-------------------8--8--------------------------------------------|
 G|-----10-----10-----------11----10-----10-----10--------------------|
Eb|--7------7------7-----------7------7------7------7--9b(10)r(9)-9---|
Bb|---------------------------------------------------------------0---|
 F|---------------------------------------------------------------0---|
Bb|---------------------------------------------------------------0---|
                 A later release of Phobia ends without the 14 --^    |
         
                                                             |
[Outro] 

Guitar 3 (Ben) 03:04 Distorted                                 |
 C|-----17-----17-----20-20-18----17-----17-----17--------------------|
 G|--15-----15-----15----------15-----15-----15-----15-17b(18)r(17)---|
Eb|-------------------------------------------------------------------|
Bb|-------------------------------------------------------------------|
 F|-------------------------------------------------------------------|
Bb|-------------------------------------------------------------------|
        
                                                              |
[Outro] 

Guitar 2 (Aaron) 03:04 Distorted                               |
 C|-------------------------------------------------------------------|
 G|-------------------------------------------------------------------|
Eb|---------------------------------------------------------------9---|
Bb|---------------------------------------------------8---8---8---0---|
 F|------------------3p0------------------------------8---8---8---0---|
Bb|--0-0-5p0-0-7p3-0-----0-8p7-0-3p2-0-0-5p0-0-7p3-0--8---8---8---0---|
                  A later release of Phobia ends without the 9 ---^


*********************************************************************
 
~-let ring                  pm-palm mute                /-slide up
b-bend                      *-harmonic                  \-slide down
r-return bend               h-hammer on                 ( )-optional
p-pull off                  PH-Pinch Harmonic

********************************************************************* 

            
            
Suggest correction
Creating personal tab
Creating personal tab
You can edit any tab online and save it as your Personal.

You can edit, replace or remove any tab part or add personal notes – all changes will be seen only by you.

Personal tabs can be accessed anytime from any device, even offline.
Learn more »
comments
print report bad tab
143 comments total. Showing first comments.
0 reply
jane's_diary 10 Aug 14, 2006 04:49 AM

good job 5 stars!

+3 reply
CrosseGod18 464 Aug 14, 2006 06:56 AM

Insane!!! Much better than the others.

0 reply
chapz2003 10 Aug 14, 2006 07:18 AM

if you watch the podcast you can clearly see that this is not how the main riff is played, other than that it is a good tab

guest
You may want to rate the tab now too:
select rating
Wanna post a correction for this tab? Suggest correction