Oops, an error
Loading. Please wait.
We have an official Diary Of Jane tab made by UG professional guitarists. Check out the tab »
×
37,386 views 27 this week
11 commentsread comments
1 2 3 4 5
x 19
add to favorites
×
Save as Personal and add changes to this tab that will be seen only by you. Learn more ›
×
You can save this tab as Personal to edit and correct it or add notes. All changes will be seen only by you. Learn more »
launch autoscroll
font size
0
reset
guitar tuner
backing track
0:00
0:00
edit
Autoscroll
slow
fast
+/-
esc
set tempo
stop
Breaking Benjamin
(The) Diary of Jane
Tabbed by U B the band
Tuning Bb F Bb Eb

Mark shows everyone how to play the correct intro (check it out).
I did the rest by ear and other online videos. I hope you like it.

http://www.youtube.com/watch?v=Q77aPIDQs-0

Intro: (Mark) 00:05
Eb|----7----------------7--9-10-----------------------------------|
Bb|--0-----------------0--------------8---------------/-----------|
 F|---------------------------------------------------------------|
Bb|---------------------------------8-----------------/-----------|

Bass: 00:17
Eb|----7---7---7h8p7----7---10p9-----7---7---7h8p7-----7---7------|
Bb|--0---0---0--------0---0--------0---0---0---------0---0--------|
 F|---------------------------------------------------------------|
Bb|---------------------------------------------------------------|

Bass: 00:23
Eb|----7---7---7h8p7----7---10p9-----7---7------------------------|
Bb|--0---0---0--------0---0--------0---0---0----------------------|
 F|---------------------------------------------------------------|
Bb|--------------------------------------------8---8---8----------|

Bass: 00:28
Eb|-------------------------------------------------------------------|
Bb|-------------------------------------------------------------------|
 F|------------------3p0-----------------------------3p0--------------|
Bb|--0-0-5p0-0-7p3-0-----0-8p7-0-3p2-0-0-5p0-0-7p3-0-----0-8p7-0-3p2--|

Bass: 00:34
Eb|---------------------------------------------------------------|
Bb|---------------------------------------------------------------|
 F|------------------3p0------------------------------------------|
Bb|--0-0-5p0-0-7p3-0-----0-8p7-0-3p2-0-0-5p0-0-7p3-0--8---8---8---|

Verse 1: 00:40
Eb|---------------------------------------------------------------|
Bb|---------------------------------------------------------------|
 F|---------------------------------------------------------------|
Bb|--0-0--0--0-0----0-0----0-0--0000--0-0----0-0-----5--0-0--8-8--|x2

Chorus: 00:57
Eb|---------------------------------------------------------------|
Bb|-----------------------------------------------------8---------|
 F|--------------------5----5--5---7h8----------------------------|
Bb|--0------0------0---------------------8----8----8-------8--8p7-|

Chorus: 01:03
Eb|---------------------10----------------------------------------|
Bb|-----------------------------------------------------10--------|
 F|--8------8------8---------8----8------7----7----7---------7--7-|
Bb|---------------------------------------------------------------|

Chorus: 01:08
Eb|---------------------------------------------------------------|
Bb|---------------------------------------------------------------|
 F|--1-------1-------1-------1--------3-------3-------3-------3---|
Bb|---------------------------------------------------------------|

Re-tro: 01:14
Eb|---------------------------------------------------------------|
Bb|---------------------------------------------------------------|
 F|------------------3p0------------------------------------------|
Bb|--0-0-5p0-0-7p3-0-----0-8p7-0-3p2-0-0-5p0-0-7p3-0--8---8---8---|

Verse 2: 01:20
Eb|---------------------------------------------------------------|
Bb|---------------------------------------------------------------|
 F|---------------------------------------------------------------|
Bb|--0-0--0--0-0----0-0----0-0--0000--0-0----0-0-----5--0-0--8-8--|

Verse 2: 01:29
Eb|---------------------------------------------------------------|
Bb|---------------------------------------------------------------|
 F|---------------------------------------------------------------|
Bb|--0-0--0--0-0----0-0----0-0--0000--0-0----0-0-----5-------8-8--|

Chorus: (play 2 times) 01:37/01:49                               --|
Eb|---------------------------------------------------------------||
Bb|-----------------------------------------------------8---------||
 F|-------------------5---5--5-----7h8----------------------------||
Bb|--0------0------0---------------------8----8----8-------8--8p7-||
                                                                   |
Chorus: 01:43/01:55                                                |
Eb|---------------------10----------------------------------------||
Bb|-----------------------------------------------------10--------||
 F|--8------8------8---------8----8------7----7----7---------7--7-||
Bb|---------------------------------------------------------------||
                                                                 --|
Chorus: 02:00
Eb|---------------------------------------------------------------|
Bb|---------------------------------------------------------------|
 F|--1-----1-----1-----1--------1-----1-----1-----1-----1---1-----|
Bb|---------------------------------------------------------------|

Chorus: 02:03
Eb|---------------------------------------------------------------|
Bb|---------------------------------------------------------------|
 F|--3-----3-----3-----3--------3-----3-----3-----3-----3---3-----|
Bb|---------------------------------------------------------------|

Bridge: 02:06
Eb|---------------------------------------------------------------|
Bb|---------------------------------------------------------------|
 F|---------------------------------------------------------------|
Bb|--0--0---0---000--000--00--2/3---0--0---0---000--000--000--1---|

Bridge: 02:12
Eb|---------------------------------------------------------------|
Bb|---------------------------------------------------------------|
 F|---------------------------------------------------------------|
Bb|--0--0---0---000--000--00--2/3---00-0-0------8p7-0-5h7-0-3\2---|

Bridge: 02:18
Eb|---------------------------------------------------------------|
Bb|---------------------------------------------------------------|
 F|---------------------------------------------------------------|
Bb|--3-----3-----3-----3-----3------5-----5-----5-----5-----5-----|

Bridge: 02:23
Eb|---------------------------------------------------------------|
Bb|---------------------------------------------------------------|
 F|---------------------------------------------------------------|
Bb|--0--0---0---000--000--00--2\3---0--0---0---000--000--000--5---|

Bridge: 02:29
Eb|---------------------------------------------------------------|
Bb|---------------------------------------------------------------|
 F|---------------------------------------------------------------|
Bb|--3-----3-----3-----3-----3-----3-----5---5---5---8--8p7--5p3--|

Chorus: (play 2 times) 02:35/02:46                               --|
Eb|---------------------------------------------------------------||
Bb|-----------------------------------------------------8---------||
 F|------------------5---5--5--5---7h8----------------------------||
Bb|--0------0------0---------------------8----8----8-------8--8p7-||
                                                                   |
Chorus: 02:41/02:52                                                |
Eb|---------------------10----------------------------------------||
Bb|-----------------------------------------------------10--------||
 F|--8------8------8---------8----8------7----7----7---------7--7-||
Bb|---------------------------------------------------------------||
                                                                 --|
Outro: 02:58
Eb|-------------------------------------------------------------------|
Bb|-------------------------------------------------------------------|
 F|------------------3p0-----------------------------3p0--------------|
Bb|--0-0-5p0-0-7p3-0-----0-8p7-0-3p2-0-0-5p0-0-7p3-0-----0-8p7-0-3p2--|

Outro: 03:04
Eb|-------------------------------------------------------------------|
Bb|-------------------------------------------------------------------|
 F|------------------3p0----------------------------------------------|
Bb|--0-0-5p0-0-7p3-0-----0-8p7-0-3p2-0-0-5p0-0-7p3-0--8---8---8---0---|

Finished!

            
            
Suggest correction
Creating personal tab
Creating personal tab
You can edit any tab online and save it as your Personal.

You can edit, replace or remove any tab part or add personal notes – all changes will be seen only by you.

Personal tabs can be accessed anytime from any device, even offline.
Learn more »
comments
print report bad tab
11 comments total. Showing first comments.
0 reply
jane's_diary 10 Apr 15, 2008 07:28 AM

ahh perfect diary of jane tabs you have on here!

0 reply
BassMasta3000 10 Apr 17, 2008 06:30 PM

dude its perfect!!! But in the intro when it goes from 0 to 7 back and forth on the last two strings, u just play 0 then 7 then don't play 0 to 7 again. Just skip that open and play 7

0 reply
BassMasta3000 10 Apr 17, 2008 06:33 PM

I made a vid (not usin this tab cuz I didn't see it when I figured it out) and search juliojrdn on youtube for it

guest
You may want to rate the tab now too:
select rating
Wanna post a correction for this tab? Suggest correction