Oops, an error
Loading. Please wait.

Fade Away tab

version 1
version 1

Whole song

Interactive

47,456 views 9 this week
17 commentsread comments
1 2 3 4 5
x 15
add to favorites
×
Save as Personal and add changes to this tab that will be seen only by you. Learn more ›
×
You can save this tab as Personal to edit and correct it or add notes. All changes will be seen only by you. Learn more »
launch autoscroll
font size
0
reset
how to read this tab
guitar tuner
edit
Autoscroll
slow
fast
+/-
esc
set tempo
stop
Breaking Benjamin
Fade Away
Tabbed by U B the band
Tuning Bb F Bb Eb G C

Legend
b-bend         r-return         /-slide up        \-slide down     h-hammer on

Intro: Guitar 2 (Clean)
 C|------------------------------------------------------------------------------------|
 G|------------------------------------------------------------------------------------|
Eb|--------------2---------0-----2----3--------3---------3/5------3----2---------------|
Bb|---------4---------4-----------------------------0----------------------------------|
 F|------------------------------------------------------------------------------------|
Bb|--0-0----------------------0-----------0--------------------0-----------------------|

Intro: Guitar 2 (Clean)
 C|------------------------------------------------------------------------------------|
 G|----------------------------------------------------5----6--------------------------|
Eb|---------2---------0------3/5----3--------3-----------------------------------------|
Bb|--------------4--------------------------------0------------------------------------|
 F|------------------------------------------------------------------------------------|
Bb|--0--------------------0-------------0----------------------------------------------|

Intro: Guitar 1 (Distorted)
 C|------------------------------------------------------------------------------------|
 G|------------------------------------------------------------------------------------|
Eb|------------------------------------------------------------------------------------|
Bb|------------------------------------------------------------------------------------|
 F|-------------12------------13\12---------------------12------------13\12------------|
Bb|--0--10-12-0----10-0-10-12p------0-10-0-12-0-10-12-0----10-0-10-12p------0-10-0-12--|
                                                                                       |
Intro: Guitar 2 (Clean)                                                                |
 C|------------------------------------------------------8-----------------------------|
 G|------------10-------8----10----11----8----11----8---------11----10-----------------|
Eb|--7----10--------7------------------------------------------------------------------|
Bb|------------------------------------------------------------------------------------|
 F|------------------------------------------------------------------------------------|
Bb|------------------------------------------------------------------------------------|

Intro: Guitar 1 (Distorted)
 C|------------------------------------------------------------------------------------|
 G|------------------------------------------------------------------------------------|
Eb|------------------------------------------------------------------------------------|
Bb|------------------------------------------------------------------------------------|
 F|-------------12------------13\12---------------------12--------------6\5--1-0-------|
Bb|--0--10-12-0----10-0-10-12p------0-10-0-12-0-10-12-0----10-0-10-12-0------1-0-------|
                                                                                       |
Intro: Guitar 2 (Clean)                                                                |
 C|-----------------------8------------------------------------------------------------|
 G|--7----10----7----8---------11------8----11----8----13------------------------------|
Eb|----------------------------------------------------------15-----14b(15)r-----------|
Bb|------------------------------------------------------------------------------------|
 F|------------------------------------------------------------------------------------|
Bb|------------------------------------------------------------------------------------|

Verse 1: Guitar 1: (Distorted)
 C|------------------------------------------------------------------------------------|
 G|------------------------------------------------------------------------------------|
Eb|------------------------------------------------------------------------------------|
Bb|-----------10-10---------10-10-----------------10-10-------10-10--------------------|
 F|-------8-8-----------8-8-------------------8-8---------8-8--------------------------|
Bb|--0--0-----------0-0-----------0---0---0-0-----------0-----------0------------------|
                                                                                       |
Verse 1: Guitar 2 (Distorted)                                                          |
 C|----------------------------------(17)----------------b-----------------------------|
 G|------------------------------------------------------------------------------------|
Eb|--(14)------------------------------------------------------------------------------|
Bb|------------------------------------------------------------------------------------|
 F|------------------------------------------------------------------------------------|
Bb|------------------------------------------------------------------------------------|

Verse 1: Guitar 1: (Distorted)
 C|------------------------------------------------------------------------------------|
 G|------------------------------------------------------------------------------------|
Eb|------------------------------------------------------------------------------------|
Bb|-----------10-10---------10-10----------------10-10--------10-10--------------------|
 F|-------8-8-----------8-8------------------8-8----------8-8--------------------------|
Bb|--8--8-----------8-8-----------8--10-1010-----------10-----------10-8-7-------------|
                                                                                       |
Verse 1: Guitar 2 (Distorted)                                                          |
 C|------------------------------------------------------------------------------------|
 G|--15--------------------------------------------------------------------------------|
Eb|---x--------------------------------------------------------------------------------|
Bb|--12--------------------------------------------------------------------------------|
 F|------------------------------------------------------------------------------------|
Bb|------------------------------------------------------------------------------------|

Verse 1: Guitar 1: (Distorted)
 C|------------------------------------------------------------------------------------|
 G|------------------------------------------------------------------------------------|
Eb|------------------------------------------------------------------------------------|
Bb|-----------10-10---------10-10-----------------10-10-------10-10--------------------|
 F|-------8-8-----------8-8-------------------8-8---------8-8--------------------------|
Bb|--0--0-----------0-0-----------0---0---0-0-----------0-----------0------------------|
                                                                                       |
Verse 1: Guitar 2 (Distorted)                                                          |
 C|------------------------------------------------------------------------------------|
 G|-------------------------13---------------------------------------------------------|
Eb|---------------------------------------14-------------------------------------------|
Bb|--12--------------------------------------------------------------------------------|
 F|------------------------------------------------------------------------------------|
Bb|------------------------------------------------------------------------------------|

Verse 1: Guitar 1: (Distorted)
 C|------------------------------------------------------------------------------------|
 G|------------------------------------------------------------------------------------|
Eb|------------------------------------------------------------------------------------|
Bb|-----------10-10---------10-10---------------10-10--------10-10-101010-8-7----------|
 F|-------8-8-----------8-8-----------------8-8----------8-8---------------------------|
Bb|--8--8-----------8-8----------8--10-1010-----------10-------------------------------|
                                                                                       |
Verse 1: Guitar 2 (Distorted)                                                          |
 C|------------------------------------------------------------------------------------|
 G|------------------------------------------------------------------------------------|
Eb|-------------------------15------------14-------------------------------------------|
Bb|--12--------------------------------------------------------------------------------|
 F|------------------------------------------------------------------------------------|
Bb|------------------------------------------------------------------------------------|

Pre Chorus: Guitar 1 (Distorted)
 C|------------------------------------------------------------------------------------|
 G|----------------------------------------------x------x------------------------------|
Eb|--10-------10-----10-----10-----9------9------x------x------------------------------|
Bb|--8--------8------8------8------8------8------x------x------------------------------|
 F|--8--------8------8------8------8------8------x------x------------------------------|
Bb|--8--------8------8------8------8------8------x------x------------------------------|

Chorus: Guitar 1 (Distorted) PLAY CHORUS 2 TIMES
 C|------------------------------------------------------------------------------------|
 G|------------------------------------------------------------------------------------|
Eb|------------------------------------------------------------------------------------|
Bb|--0-------0--0----3-------3--3----8-------8--8----8-------8--8/10-------------------|
 F|--0-------0--0----3-------3--3----8-------8--8----8-------8--8/10-------------------|
Bb|--0-------0--0----3-------3--3----8-------8--8----8-------8--8/10-------------------|
                                                                                       |
Chorus: Guitar 2 (Distorted)                                                           |
 C|----------10------8----------10-----------------------------------------------------|
 G|------10--------------------------10--------10--------------------------------------|
Eb|--7------------7------------------------7--------7----10---9------------------------|
Bb|------------------------------------------------------------------------------------|
 F|------------------------------------------------------------------------------------|
Bb|------------------------------------------------------------------------------------|

Chorus: Guitar 1 (Distorted)
 C|------------------------------------------------------------------------------------|
 G|------------------------------------------------------------------------------------|
Eb|------------------------------------------------------------------------------------|
Bb|--0-------0--0----3-------3--3----8-------8--8----8-------8--8\7--------------------|
 F|--0-------0--0----3-------3--3----8-------8--8----8-------8--8\7--------------------|
Bb|--0-------0--0----3-------3--3----8-------8--8----8-------8--8\7--------------------|
                                                                                       |
Chorus: Guitar 2 (Distorted)                                                           |
 C|----------10------8----------10-----------------------------------------------------|
 G|------10--------------------------10--------10-------------8------------------------|
Eb|--7------------7------------------------7--------7----10----------------------------|
Bb|------------------------------------------------------------------------------------|
 F|------------------------------------------------------------------------------------|
Bb|------------------------------------------------------------------------------------|

Post Chorus: Guitar 1 (Distorted)
 C|------------------------------------------------------------------------------------|
 G|------------------------------------------------------------------------------------|
Eb|------------------------------------------------------------------------------------|
Bb|------------------------------------------------------------------------------------|
 F|-------------12------------13\12---------------------12------------13\12------------|
Bb|--0--10-12-0----10-0-10-12p------0-10-0-12-0-10-12-0----10-0-10-12-------0-10-12----|
                                                                                       |
Post Chorus: Guitar 2 (Clean)                                                          |
 C|------------------------------------------------------8-----------------------------|
 G|------------10-------8----10----11----8----11----8---------11----10-----------------|
Eb|--7----10--------7------------------------------------------------------------------|
Bb|------------------------------------------------------------------------------------|
 F|------------------------------------------------------------------------------------|
Bb|------------------------------------------------------------------------------------|

Post Chorus: Guitar 1 (Distorted)
 C|------------------------------------------------------------------------------------|
 G|------------------------------------------------------------------------------------|
Eb|------------------------------------------------------------------------------------|
Bb|------------------------------------------------------------------------------------|
 F|-------------12------------13\12---------------------12--------------6\5--1-0-------|
Bb|--0--10-12-0----10-0-10-12p------0-10-0-12-0-10-12-0----10-0-10-12-0------1-0-------|
                                                                                       |
Post Chorus: Guitar 2 (Clean)                                                          |
 C|-----------------------8------------------------------------------------------------|
 G|--7----10----7----8---------11------8----11----8----13------------------------------|
Eb|----------------------------------------------------------15-----14b(15)r-----------|
Bb|------------------------------------------------------------------------------------|
 F|------------------------------------------------------------------------------------|
Bb|------------------------------------------------------------------------------------|

Verse 2: Guitar 1: (Distorted)
 C|------------------------------------------------------------------------------------|
 G|------------------------------------------------------------------------------------|
Eb|------------------------------------------------------------------------------------|
Bb|-----------10-10---------10-10-----------------10-10-------10-10--------------------|
 F|-------8-8-----------8-8-------------------8-8---------8-8--------------------------|
Bb|--0--0-----------0-0-----------0---0---0-0-----------0-----------0------------------|
                                                                                       |
Verse 2: Guitar 2 (Distorted)                                                          |
 C|----------------------------------(17)----------------b-----------------------------|
 G|------------------------------------------------------------------------------------|
Eb|--(14)------------------------------------------------------------------------------|
Bb|------------------------------------------------------------------------------------|
 F|------------------------------------------------------------------------------------|
Bb|------------------------------------------------------------------------------------|

Verse 2: Guitar 1: (Distorted)
 C|------------------------------------------------------------------------------------|
 G|------------------------------------------------------------------------------------|
Eb|------------------------------------------------------------------------------------|
Bb|-----------10-10---------10-10----------------10-10--------10-10--------------------|
 F|-------8-8-----------8-8------------------8-8----------8-8--------------------------|
Bb|--8--8-----------8-8-----------8--10-1010-----------10-----------10-8-7-------------|
                                                                                       |
Verse 2: Guitar 2 (Distorted)                                                          |
 C|------------------------------------------------------------------------------------|
 G|--15--------------------------------------------------------------------------------|
Eb|---x--------------------------------------------------------------------------------|
Bb|--12--------------------------------------------------------------------------------|
 F|------------------------------------------------------------------------------------|
Bb|------------------------------------------------------------------------------------|

Verse 2: Guitar 1: (Distorted)
 C|------------------------------------------------------------------------------------|
 G|------------------------------------------------------------------------------------|
Eb|------------------------------------------------------------------------------------|
Bb|-----------10-10---------10-10-----------------10-10-------10-10--------------------|
 F|-------8-8-----------8-8-------------------8-8---------8-8--------------------------|
Bb|--0--0-----------0-0-----------0---0---0-0-----------0-----------0------------------|
                                                                                       |
Verse 2: Guitar 2 (Distorted)                                                          |
 C|------------------------------------------------------------------------------------|
 G|-------------------------13---------------------------------------------------------|
Eb|---------------------------------------14-------------------------------------------|
Bb|--12--------------------------------------------------------------------------------|
 F|------------------------------------------------------------------------------------|
Bb|------------------------------------------------------------------------------------|

Verse 2: Guitar 1: (Distorted)
 C|------------------------------------------------------------------------------------|
 G|------------------------------------------------------------------------------------|
Eb|------------------------------------------------------------------------------------|
Bb|-----------10-10---------10-10---------------10-10--------10-10-101010-8-7----------|
 F|-------8-8-----------8-8-----------------8-8----------8-8---------------------------|
Bb|--8--8-----------8-8----------8--10-1010-----------10-------------------------------|
                                                                                       |
Verse 2: Guitar 2 (Distorted)                                                          |
 C|------------------------------------------------------------------------------------|
 G|------------------------------------------------------------------------------------|
Eb|-------------------------15------------14-------------------------------------------|
Bb|--12--------------------------------------------------------------------------------|
 F|------------------------------------------------------------------------------------|
Bb|------------------------------------------------------------------------------------|

Pre Chorus: Guitar 1 (Distorted)
 C|------------------------------------------------------------------------------------|
 G|----------------------------------------------x------x------------------------------|
Eb|--10-------10-----10-----10-----9------9------x------x------------------------------|
Bb|--8--------8------8------8------8------8------x------x------------------------------|
 F|--8--------8------8------8------8------8------x------x------------------------------|
Bb|--8--------8------8------8------8------8------x------x------------------------------|

Chorus: Guitar 1 (Distorted) PLAY CHORUS 2 TIMES
 C|------------------------------------------------------------------------------------|
 G|------------------------------------------------------------------------------------|
Eb|------------------------------------------------------------------------------------|
Bb|--0-------0--0----3-------3--3----8-------8--8----8-------8--8/10-------------------|
 F|--0-------0--0----3-------3--3----8-------8--8----8-------8--8/10-------------------|
Bb|--0-------0--0----3-------3--3----8-------8--8----8-------8--8/10-------------------|
                                                                                       |
Chorus: Guitar 2 (Distorted)                                                           |
 C|----------10------8----------10-----------------------------------------------------|
 G|------10--------------------------10--------10--------------------------------------|
Eb|--7------------7------------------------7--------7----10---9------------------------|
Bb|------------------------------------------------------------------------------------|
 F|------------------------------------------------------------------------------------|
Bb|------------------------------------------------------------------------------------|

Chorus: Guitar 1 (Distorted)
 C|------------------------------------------------------------------------------------|
 G|------------------------------------------------------------------------------------|
Eb|------------------------------------------------------------------------------------|
Bb|--0-------0--0----3-------3--3----8-------8--8----8-------8--8\7--------------------|
 F|--0-------0--0----3-------3--3----8-------8--8----8-------8--8\7--------------------|
Bb|--0-------0--0----3-------3--3----8-------8--8----8-------8--8\7--------------------|
                                                                                       |
Chorus: Guitar 2 (Distorted)                                                           |
 C|----------10------8----------10-----------------------------------------------------|
 G|------10--------------------------10--------10-------------8------------------------|
Eb|--7------------7------------------------7--------7----10----------------------------|
Bb|------------------------------------------------------------------------------------|
 F|------------------------------------------------------------------------------------|
Bb|------------------------------------------------------------------------------------|

Bridge: Guitar 1 (Distorted)
 C|------------------------------------------------------------------------------------|
 G|------------------------------------------------------------------------------------|
Eb|------------------------------------------------------------------------------------|
Bb|------------------------------------------------------------------------------------|
 F|-------------------3---5-------6---3---5---6------------------3--5---3--0-----------|
Bb|--0----3---5---0-----------0--------------------0---3---5--0----------------3h5-3\1-|
                                                                                       |
Bridge: Guitar 2 (Distorted w/ Wah)                                                    |
 C|------------------------------------------------------------------------------------|
 G|--15-------------------------10--------8-------11---------------------------10---16-|
Eb|---x--------------------------x--------x--------x----------------------------x----x-|
Bb|--12--------------------------7--------5--------8----------------------------7---13-|
 F|------------------------------------------------------------------------------------|
Bb|------------------------------------------------------------------------------------|

Bridge: Guitar 1 (Distorted)
 C|------------------------------------------------------------------------------------|
 G|------------------------------------------------------------------------------------|
Eb|------------------------------------------------------------------------------------|
Bb|------------------------------------------------------------------------------------|
 F|-------------------3---5-------6---3---5---6-------------------3--5---3--0------1---|
Bb|--0----3---5---0-----------0--------------------0---3---5---0-------------------1---|
                                                                                       |
Bridge: Guitar 2 (Distorted w/ Wah)                                                    |
 C|------------------------------------------------------------------------------------|
 G|--15-------------------------10-------13-------11-------------------------10---16---|
Eb|---x--------------------------x--------x--------x--------------------------x----x---|
Bb|--12--------------------------7-------10--------8--------------------------7---13---|
 F|------------------------------------------------------------------------------------|
Bb|------------------------------------------------------------------------------------|

Bridge: Guitar 1 (Distorted)
 C|------------------------------------------------------------------------------------|
 G|------------------------------------------------------------------------------------|
Eb|------------------------------------------------------------------------------------|
Bb|------------------------------------------------------------------------------------|
 F|--0----3---5---0---3---5---0---6---3---5---6----0---3---5---0--3--5---3--0--3h5-3\1-|
Bb|--0----3---5---0-----------0--------------------0---3---5---0---------------3h5-3\1-|
                                                                                       |
Bridge: Guitar 2 (Distorted)                                                           |
 C|------------------------------------------------------------------------------------|
 G|----------------------------------------------13------------------------------------|
Eb|--14h15-14-12-14-15-14-12-14-15-14-12-14-15-14--15-14-12-14-15-14-13-14-15-14-12-14-|
Bb|------------------------------------------------------------------------------------|
 F|------------------------------------------------------------------------------------|
Bb|------------------------------------------------------------------------------------|

Bridge: Guitar 1 (Distorted)
 C|------------------------------------------------------------------------------------|
 G|------------------------------------------------------------------------------------|
Eb|------------------------------------------------------------------------------------|
Bb|---------------------------------------------------------------------------3--3-----|
 F|--0----3---5---0---3---5---0---6---3---5---6----0---3---5---0--3--5-----1--1--1--0--|
Bb|--0----3---5---0-----------0--------------------0---3---5---0-----------1--------0--|
                                                                                       |
Bridge: Guitar 2 (Distorted)                                                           |
 C|------------------------------------------------------------------------6--8-----8\-|
 G|------------------------------------------------------------------------6--6-----8\-|
Eb|--11/12-11/12-----------------10--------12--------11--------------------------------|
Bb|--------------9--10-12--10-12-----10-12-----10-12-----10-12-13-10-12-13-------------|
 F|------------------------------------------------------------------------------------|
Bb|------------------------------------------------------------------------------------|

Chorus: Guitar 1 (Distorted) PLAY CHORUS 2 TIMES
 C|------------------------------------------------------------------------------------|
 G|------------------------------------------------------------------------------------|
Eb|------------------------------------------------------------------------------------|
Bb|--0-------0--0----3-------3--3----8-------8--8----8-------8--8/10-------------------|
 F|--0-------0--0----3-------3--3----8-------8--8----8-------8--8/10-------------------|
Bb|--0-------0--0----3-------3--3----8-------8--8----8-------8--8/10-------------------|
                                                                                       |
Chorus: Guitar 2 (Distorted)                                                           |
 C|----------10------8----------10-----------------------------------------------------|
 G|------10--------------------------10--------10--------------------------------------|
Eb|--7------------7------------------------7--------7----10---9------------------------|
Bb|------------------------------------------------------------------------------------|
 F|------------------------------------------------------------------------------------|
Bb|------------------------------------------------------------------------------------|

Chorus: Guitar 1 (Distorted)
 C|------------------------------------------------------------------------------------|
 G|------------------------------------------------------------------------------------|
Eb|------------------------------------------------------------------------------------|
Bb|--0-------0--0----3-------3--3----8-------8--8----8-------8--8\7--------------------|
 F|--0-------0--0----3-------3--3----8-------8--8----8-------8--8\7--------------------|
Bb|--0-------0--0----3-------3--3----8-------8--8----8-------8--8\7--------------------|
                                                                                       |
Chorus: Guitar 2 (Distorted)                                                           |
 C|----------10------8----------10-----------------------------------------------------|
 G|------10--------------------------10--------10-------------8------------------------|
Eb|--7------------7------------------------7--------7----10----------------------------|
Bb|------------------------------------------------------------------------------------|
 F|------------------------------------------------------------------------------------|
Bb|------------------------------------------------------------------------------------|

Outro: Guitar 1 (Distorted)
 C|------------------------------------------------------------------------------------|
 G|------------------------------------------------------------------------------------|
Eb|------------------------------------------------------------------------------------|
Bb|------------------------------------------------------------------------------------|
 F|-------------12------------13\12---------------------12------------13\12------------|
Bb|--0--10-12-0----10-0-10-12p------0-10-0-12-0-10-12-0----10-0-10-12-------0-10-12----|
                                                                                       |
Outro: Guitar 2 (Clean)                                                                |
 C|------------------------------------------------------8-----------------------------|
 G|------------10-------8----10----11----8----11----8---------11----10-----------------|
Eb|--7----10--------7------------------------------------------------------------------|
Bb|------------------------------------------------------------------------------------|
 F|------------------------------------------------------------------------------------|
Bb|------------------------------------------------------------------------------------|

Outro: Guitar 1 (Distorted)
 C|------------------------------------------------------------------------------------|
 G|------------------------------------------------------------------------------------|
Eb|------------------------------------------------------------------------------------|
Bb|------------------------------------------------------------------------------------|
 F|-------------12------------13\12---------------------12--------------6\5--1-0-------|
Bb|--0--10-12-0----10-0-10-12p------0-10-0-12-0-10-12-0----10-0-10-12-0------1-0-------|
                                                                                       |
Outro: Guitar 2 (Clean)                                                                |
 C|-----------------------8------------------------------------------------------------|
 G|--7----10----7----8---------11------8----11----8----13------------------------------|
Eb|----------------------------------------------------------15-----14b(15)r-----------|
Bb|------------------------------------------------------------------------------------|
 F|------------------------------------------------------------------------------------|
Bb|------------------------------------------------------------------------------------|

Outro: Guitar 1: (Distorted)
 C|------------------------------------------------------------------------------------|
 G|------------------------------------------------------------------------------------|
Eb|------------------------------------------------------------------------------------|
Bb|------------------------------------------------------------------------------------|
 F|--(0)-------------------------------------------------------------------------------|
Bb|--(0)-------------------------------------------------------------------------------|
                                                                                       |
Outro: Guitar 2 (Distorted)                                                            |
 C|----------------------------------(17)----------------------------------------------|
 G|------------------------------------------------------------------------------------|
Eb|--(14)------------------------------------------------------------------------------|
Bb|------------------------------------------------------------------------------------|
 F|------------------------------------------------------------------------------------|
Bb|------------------------------------------------------------------------------------|

Finished

            
            
Suggest correction
Creating personal tab
Creating personal tab
You can edit any tab online and save it as your Personal.

You can edit, replace or remove any tab part or add personal notes – all changes will be seen only by you.

Personal tabs can be accessed anytime from any device, even offline.
Learn more »
comments
print report bad tab
17 comments total. Showing first comments.
+3 reply
corbz 117 Oct 05, 2009 08:02 AM

Hey UB. Ive been waiting for u to tab this :P thanks! I found a little error in the intro tho.

I think it should be:

C|---------------------------------------------------------|
G|---------------------------------------------------------|
Eb|----------2-----0-----2----3-------3--0--3/5-----3----2--|
Bb|-------4-----4-------------------------------------------|
F|---------------------------------------------------------|
Bb|--0----------------0------------0-------------0----------|

C|--------------------------------------------|
G|------------------------------------5----6--|
Eb|-----2-----0-----5----3/9-----3--0----------|
Bb|--------4-----------------------------------|
F|--------------------------------------------|
Bb|--0-----------0-----------0-----------------|

0 reply
corbz 117 Oct 05, 2009 08:46 AM

anyway all praise goes to u tho, its much easier for me after u submit ur tab. Thanks for all the BB tabs over the years as well

0 reply
ambient203 233 Oct 05, 2009 11:39 AM

hey UB, corbz intro looks good except im pretty sure theres another Bb following the low Bb, every other time the open is played. so i play it like this

C|------------------------------------------------------------|
G|------------------------------------------------------------|
Eb|----------2-----0-----2----3---------3--0--3/5-----3----2--|
Bb|-------4-----4---------------------------------------------|
F|------0-----------------------------0-----------------------|
Bb|--0----------------0------------0-------------0------------|

etc. otherwise awesome tab, really enjoy this song. same as corbz, thanks a bunch for the great work you've been doing recently man.

guest
You may want to rate the tab now too:
select rating
Wanna post a correction for this tab? Suggest correction