Oops, an error
Loading. Please wait.

Fade Away tab

version 3
version 3

Whole song

Interactive

740 views 3 this week
no commentswrite comment
1 2 3 4 5
1 last vote to show rating
add to favorites
×
Save as Personal and add changes to this tab that will be seen only by you. Learn more ›
×
You can save this tab as Personal to edit and correct it or add notes. All changes will be seen only by you. Learn more »
launch autoscroll
font size
0
reset
how to read this tab
guitar tuner
edit
Autoscroll
slow
fast
+/-
esc
set tempo
stop
Tabbed by: SoarStaraptor


Breaking Benjamin - Fade Away 'Tab'


The more precise and correct. Here ya go!


Tuning: Drop A#


Intro: Clean
Guitar 2 Lead
C----------------------------------------------------------------------------------------0------|
G-----------------------------------------------------------------------------------------------|
D#--------------0-----------------------------------------------0---------------------------10--|
A#--------7-----------7--8-----8------8h10-----8--7-------7-----------10----8-----8-------------|
F------9-----9--------------------10-------------------------9-----------------------10---------|
A#-0---------------0--------0---------------0----------0-----------0-----------0----------------|
                                  I'm cold and broken!


DISTORTION
Rhythm Guitar: (0:11)
C-------------------------------------------------------------------------------|
G-------------------------------------------------------------------------------|
D#------------------------------------------------------------------------------|
A#------------------------------------------------------------------------------|
F-------------12--------------13\12----------------------12--------------13\12--|
A#-0--10-12-0----12-0-10-12-0--------0-10-0-12-0-10-12-0----12-0-10-12-0--------|


Lead Guitar: (0:11)
C----------------------------------------7------------|
G-----7--10--7--8----10--11----7--10--7-------11--10--|
D#-7--------------------------------------------------|
A#----------------------------------------------------|
F-----------------------------------------------------|
A#----------------------------------------------------|

Rhythm:
C-----------------------------------------------------------------------------------|
G-----------------------------------------------------------------------------------|
D#----------------------------------------------------------------------------------|
A#-----------------------------------------------------------------------------x----|
F------------12--------------13\12----------------------12---------------------x-1--|
A#-0-10-12-0----12-0-10-12-0--------0-10-0-12-0-10-12-0----12-0-10-12-0-13\12--x-1--|

Lead:
C-----------------8--------------------8----------------|
G--7--10--7--8---------11----8--11--8-------11----10b---|
D#------------------------------------------------------|
A#------------------------------------------------------|
F-------------------------------------------------------|
A#------------------------------------------------------|


VERSE:
Rhythm:
C---------------------------------------------------------------------------|
G---------------------------------------------------------------------------|
D#--------------------------------------------------------------------------|
A#------------10-10---------10-10-----------------10-10---------10-10-------|
F---------8-8-----------8-8-------------------8-8-----------8-8-------------|
A#-0---0------------0-0-----------0-0---0---0-----------0-0-----------0-0-0-|
          * *       * * * *       * *   *   * * *       * * * *       * * *
       It's over, I didn't want to see it come to this..

Rhythm:
C--------------------------------------------------------------------------------|
G--------------------------------------------------------------------------------|
D#-------------------------------------------------------------------------------|
A#------------10-10---------10-10-------------------10-10-----------10-10--------|
F---------8-8-----------8-8---------------------8-8-------------8-8--------------|
A#-8---8------------8-8-----------8-8---10---10-----------10-10-----------10-8-7-|
   *   *  * *       * * * *       * *   *    *  * *       *  *  * *       *  * *
       I wonder, if I will ever see your face again..

Lead:
C----------------|
G--10------------|
D#-7-------------|
A#---------------|
F----------------|
A#---------------|


Rhythm:
C---------------------------------------------------------------------------|
G---------------------------------------------------------------------------|
D#--------------------------------------------------------------------------|
A#------------10-10---------10-10-----------------10-10---------10-10-------|
F---------8-8-----------8-8-------------------8-8-----------8-8-------------|
A#-0---0------------0-0-----------0-0---0---0-----------0-0-----------0-0-0-|
   *   *  * *       * * * *       * *   *   * * *       * * * *       * * *
       And I know, that I will learn a way to shed the skin..

Lead:
C---------8------------|
G---------------10-----|
D#-7-------------------|
A#---------------------|
F----------------------|
A#---------------------|


Rhythm:
C----------------------------------------------------------------------------------|
G----------------------------------------------------------------------------------|
D#---------------------------------------------------------------------------------|
A#------------10-10---------10-10-------------------10-10-----------10-10--8-8--7--|
F---------8-8-----------8-8---------------------8-8-------------8-8----------------|
A#-8---8------------8-8-----------8-8---10---10-----------10-10--------------------|
   *   *  * *       * * * *       * *   *    *  * *       *  *  * *
       It's simple, I know that I will suffer in the..

Lead:
C----------------------|
G--------11-----10-----|
D#-7-------------------|
A#---------------------|
F----------------------|
A#---------------------|


Both Guitars:
C------------------------------|
G------------------------------|
D#-10---10--10--10-9-----------|
A#-8----8---8---8--8----X-X----|
F--8----8---8---8--8----X-X----|
A#-8----8---8---8--8----X-X----|
   End!

CHORUS: Play Twice
Rhythm:
C-----------------------------------------------|
G-----------------------------------------------|
D#----------------------------------------------|
A#-0---0--0-3----3--3-8----8--8--8--8--8--X-10--|
F--0---0--0-3----3--3-8----8--8--8--8--8--X-10--|
A#-0---0--0-3----3--3-8----8--8--8--8--8--X-10--|
   Fast I fade away..         Almost..
   Slow I suffocate..         Cold and..

Lead:
C-----------10------8----10------------------------------|
G-------10------10-------------10------10----------------|
D#-7--------------------------------7------7--10----9----|
A#-------------------------------------------------------|
F--------------------------------------------------------|
A#-------------------------------------------------------|


Rhythm:
C----------------------------------------------|
G----------------------------------------------|
D#---------------------------------------------|
A#-0---0--0-3----3--3-8----8--8--8--8--8--X-7--|
F--0---0--0-3----3--3-8----8--8--8--8--8--X-7--|
A#-0---0--0-3----3--3-8----8--8--8--8--8--X-7--|
   Over..        Hold on..
   Broken..      Alone..

Lead:
C-----------10------8----10------------------------------|
G-------10------10-------------10------10-----------8----|
D#-7--------------------------------7------7--10---------|
A#-------------------------------------------------------|
F--------------------------------------------------------|
A#-------------------------------------------------------|

POST-CHORUS:
Rhythm Guitar:
C-------------------------------------------------------------------------------|
G-------------------------------------------------------------------------------|
D#------------------------------------------------------------------------------|
A#------------------------------------------------------------------------------|
F-------------12--------------13\12----------------------12--------------13\12--|
A#-0--10-12-0----12-0-10-12-0--------0-10-0-12-0-10-12-0----12-0-10-12-0--------|


Lead Guitar:
C----------------------------------------7------------|
G-----7--10--7--8----10--11----7--10--7-------11--10--|
D#-7--------------------------------------------------|
A#----------------------------------------------------|
F-----------------------------------------------------|
A#----------------------------------------------------|

Rhythm:
C-----------------------------------------------------------------------------------|
G-----------------------------------------------------------------------------------|
D#----------------------------------------------------------------------------------|
A#-----------------------------------------------------------------------------x----|
F------------12--------------13\12----------------------12---------------------x-1--|
A#-0-10-12-0----12-0-10-12-0--------0-10-0-12-0-10-12-0----12-0-10-12-0-13\12--x-1--|

Lead:
C-----------------8--------------------8----------------|
G--7--10--7--8---------11----8--11--8-------11----10b---|
D#------------------------------------------------------|
A#------------------------------------------------------|
F-------------------------------------------------------|
A#------------------------------------------------------|


VERSE 2:
Rhythm:
C---------------------------------------------------------------------------|
G---------------------------------------------------------------------------|
D#--------------------------------------------------------------------------|
A#------------10-10---------10-10-----------------10-10---------10-10-------|
F---------8-8-----------8-8-------------------8-8-----------8-8-------------|
A#-0---0------------0-0-----------0-0---0---0-----------0-0-----------0-0-0-|
          * *       * * * *       * *   *   * * *       * * * *       * * *
       It's hopeless, the end will come and wash it all away..

Rhythm:
C--------------------------------------------------------------------------------|
G--------------------------------------------------------------------------------|
D#-------------------------------------------------------------------------------|
A#------------10-10---------10-10-------------------10-10-----------10-10--------|
F---------8-8-----------8-8---------------------8-8-------------8-8--------------|
A#-8---8------------8-8-----------8-8---10---10-----------10-10-----------10-8-7-|
   *   *  * *       * * * *       * *   *    *  * *       *  *  * *       *  * *
       Forsaken, I live for those I lost along the way

Lead:
C----------------|
G--10------------|
D#-7-------------|
A#---------------|
F----------------|
A#---------------|


Rhythm:
C---------------------------------------------------------------------------|
G---------------------------------------------------------------------------|
D#--------------------------------------------------------------------------|
A#------------10-10---------10-10-----------------10-10---------10-10-------|
F---------8-8-----------8-8-------------------8-8-----------8-8-------------|
A#-0---0------------0-0-----------0-0---0---0-----------0-0-----------0-0-0-|
   *   *  * *       * * * *       * *   *   * * *       * * * *       * * *
       And I can't remember how it all began to break..

Lead:
C---------8------------|
G---------------10-----|
D#-7-------------------|
A#---------------------|
F----------------------|
A#---------------------|


Rhythm:
C----------------------------------------------------------------------------------|
G----------------------------------------------------------------------------------|
D#---------------------------------------------------------------------------------|
A#------------10-10---------10-10-------------------10-10-----------10-10--8-8--7--|
F---------8-8-----------8-8---------------------8-8-------------8-8----------------|
A#-8---8------------8-8-----------8-8---10---10-----------10-10--------------------|
   *   *  * *       * * * *       * *   *    *  * *       *  *  * *
       You suffer, I live to fight and die another..

Lead:
C----------------------|
G--------11-----10-----|
D#-7-------------------|
A#---------------------|
F----------------------|
A#---------------------|


Both Guitars:
C-------------------------------|
G-------------------------------|
D#-10---10--10--10-9------------|
A#-8----8---8---8--8----X-X-X-X-|
F--8----8---8---8--8----X-X-X-X-|
A#-8----8---8---8--8----X-X-X-X-|
   Day!


CHORUS 2:
Rhythm:
C-----------------------------------------------|
G-----------------------------------------------|
D#----------------------------------------------|
A#-0---0--0-3----3--3-8----8--8--8--8--8--X-10--|
F--0---0--0-3----3--3-8----8--8--8--8--8--X-10--|
A#-0---0--0-3----3--3-8----8--8--8--8--8--X-10--|
   Fast I fade away..         Almost..
   Slow I suffocate..         Cold and..

Lead:
C-----------10------8----10------------------------------|
G-------10------10-------------10------10----------------|
D#-7--------------------------------7------7--10----9----|
A#-------------------------------------------------------|
F--------------------------------------------------------|
A#-------------------------------------------------------|


Rhythm:
C----------------------------------------------|
G----------------------------------------------|
D#---------------------------------------------|
A#-0---0--0-3----3--3-8----8--8--8--8--8--X-7--|
F--0---0--0-3----3--3-8----8--8--8--8--8--X-7--|
A#-0---0--0-3----3--3-8----8--8--8--8--8--X-7--|
   Over..        Hold on..
   Broken..      Alone..

Lead:
C-----------10------8----10------------------------------|
G-------10------10-------------10------10-----------8----|
D#-7--------------------------------7------7--10---------|
A#-------------------------------------------------------|
F--------------------------------------------------------|
A#-------------------------------------------------------|


BRIDGE:
Rhythm Guitar: (2:08)
C--------------------------------------------------------------------|
G--------------------------------------------------------------------|
D#-------------------------------------------------------------------|
A#-------------------------------------------------------------------|
F------------3h5-----6\5---3-x-6-x-5-x---------3h5-----5-------3-----|
A#-0---3h5p0-----3p0-----0---------------3h5p0-----3p0---3-0-3---5-3-|

Lead Guitar: (2:08) WAH Effect
C--------------------------------------------------------------------|
G--15----------------------------------------------------16----------|
D#-x-----------------14-----12---15------------14--------x-----------|
A#-12----------------x------x----x-------------x---------13----------|
F--------------------12-----10---13------------12--------------------|
A#-------------------------------------------------------------------|

Rhythm:
C---------------------------------------------------------------------|
G---------------------------------------------------------------------|
D#--------------------------------------------------------------------|
A#---------------------------------------------------------------X-1--|
F------------3h5-----6\5---3-x-6-x-5-x---------3h5-----5---------X-1--|
A#-0---3h5p0-----3p0-----0---------------3h5p0-----3p0---3-0-3---X-1--|

Lead:
C--------------------------------------------------------------------|
G--15----------------------------------------------------16----------|
D#-x-----------------14-----17---15------------14--------x-----------|
A#-12----------------x------x----x-------------x---------13----------|
F--------------------12-----15---13------------12--------------------|
A#-------------------------------------------------------------------|

Rhythm: (2:19)
C--------------------------------------------------------------------|
G--------------------------------------------------------------------|
D#-------------------------------------------------------------------|
A#-------------------------------------------------------------------|
F------------3h5-----6\5---3-x-6-x-5-x---------3h5-----5-------3-----|
A#-0---3h5p0-----3p0-----0---------------3h5p0-----3p0---3-0-3---5-3-|

Lead: (2:19)
C------------------------------------------------------------------------------------------------|
G---------------------------------------------------13-------------------------------------------|
D#-14--15p14-12-14-15-14-12-14-15-14-x--14-15-14-12-----14~-12-14-15-14-12-11/12-x--12\11--------|
A#----------------------------------------------------------------------------------------10-----|
F--------------------------------------------------------------------------------------------12--|
A#-----------------------------------------------------------------------------------------------|

Rhythm:
C--------------------------------------------------------------------------------|
G--------------------------------------------------------------------------------|
D#---------------------------------------------------------------3---3-----------|
A#---------------------------------------------------X-1---1---x-3---3---x-0--x--|
F------------3h5-----6\5---3-x-6-x-5-x---------3h5---X-1---1---x-1---1---x-0--x--|
A#-0---3h5p0-----3p0-----0---------------3h5p0-------X-1---1---x---------x-0--x--|

Lead:
C------------------------------------------------------------------------15-----15--\--|
G-----------------------------------------------------------------13-----13-----15--\--|
D#-----------10--------12---------11------------------------------12-------------------|
A#-12--10h12-----12p10-----10h12------10-12-13--10-12-13--10---------------------------|
F--------------------------------------------------------------------------------------|
A#-------------------------------------------------------------------------------------|


CHORUS 3:
Rhythm:
C-----------------------------------------------|
G-----------------------------------------------|
D#----------------------------------------------|
A#-0---0--0-3----3--3-8----8--8--8--8--8--X-10--|
F--0---0--0-3----3--3-8----8--8--8--8--8--X-10--|
A#-0---0--0-3----3--3-8----8--8--8--8--8--X-10--|
   Fast I fade away..         Almost..
   Slow I suffocate..         Cold and..

Lead:
C-----------10------8----10------------------------------|
G-------10------10-------------10------10----------------|
D#-7--------------------------------7------7--10----9----|
A#-------------------------------------------------------|
F--------------------------------------------------------|
A#-------------------------------------------------------|


Rhythm:
C----------------------------------------------|
G----------------------------------------------|
D#---------------------------------------------|
A#-0---0--0-3----3--3-8----8--8--8--8--8--X-7--|
F--0---0--0-3----3--3-8----8--8--8--8--8--X-7--|
A#-0---0--0-3----3--3-8----8--8--8--8--8--X-7--|
   Over..        Hold on..
   Broken..      Alone..

Lead:
C-----------10------8----10------------------------------|
G-------10------10-------------10------10-----------8----|
D#-7--------------------------------7------7--10---------|
A#-------------------------------------------------------|
F--------------------------------------------------------|
A#-------------------------------------------------------|


OUTRO:
Rhythm Guitar:
C-------------------------------------------------------------------------------|
G-------------------------------------------------------------------------------|
D#------------------------------------------------------------------------------|
A#------------------------------------------------------------------------------|
F-------------12--------------13\12----------------------12--------------13\12--|
A#-0--10-12-0----12-0-10-12-0--------0-10-0-12-0-10-12-0----12-0-10-12-0--------|


Lead Guitar:
C----------------------------------------7------------|
G-----7--10--7--8----10--11----7--10--7-------11--10--|
D#-7--------------------------------------------------|
A#----------------------------------------------------|
F-----------------------------------------------------|
A#----------------------------------------------------|

Rhythm:
C------------------------------------------------------------------------------------|
G------------------------------------------------------------------------------------|
D#-----------------------------------------------------------------------------------|
A#-----------------------------------------------------------------------------x-1---|
F------------12--------------13\12----------------------12---------------------x-1---|
A#-0-10-12-0----12-0-10-12-0--------0-10-0-12-0-10-12-0----12-0-10-12-0-13\12--x-1---|

Lead:
C-----------------8--------------------8----------------|
G--7--10--7--8---------11----8--11--8-------11----10----|
D#------------------------------------------------------|
A#------------------------------------------------------|
F-------------------------------------------------------|
A#------------------------------------------------------|


End with this:
C------|
G------|
D#-----|
A#-0---|
F--0---|
A#-0---|


That's all she wrote!


Key:
/ = slide up
\ = slide down
h = hammer on
p = pull off
+ = harmonic
x = stop note
X = dead note
* = palm mute




            
            
Suggest correction
Creating personal tab
Creating personal tab
You can edit any tab online and save it as your Personal.

You can edit, replace or remove any tab part or add personal notes – all changes will be seen only by you.

Personal tabs can be accessed anytime from any device, even offline.
Learn more »
Give kudos to tab author, rate the tab!
1 2 3 4 5
comments
print report bad tab
guest
You may want to rate the tab now too:
select rating
Wanna post a correction for this tab? Suggest correction