Oops, an error
Loading. Please wait.
We have an official Forget It tab made by UG professional guitarists. Check out the tab »
×
23,364 views 9 this week
7 commentsread comments
1 2 3 4 5
x 17
add to favorites
×
Save as Personal and add changes to this tab that will be seen only by you. Learn more ›
×
You can save this tab as Personal to edit and correct it or add notes. All changes will be seen only by you. Learn more »
launch autoscroll
font size
0
reset
how to read this tab
guitar tuner
edit
Autoscroll
slow
fast
+/-
esc
set tempo
stop
Author
Difficulty
Song: forget it
Artist: Breaking Benjamin
Tunning: Drop D 
Tabbed by:james parocha


Intro 	   (This is played at the very beginning and through some
e------------|  of the first verse.)
b------------|
g-------12*--|
d--------12*-| (harmonics)
a------------|
D------------|

Play above riff 8 times then come in with:
 
 intro/1st verse
e-------|-------------|	Each chord is  strummed x16
b-------|-------------|	with downstrokes, each verse,
g-------|-------5--6--|	just move chords down a fret
d-------|-------5--6--|	(1/2 step interavals,) here they
a-1-/-5-|-1-/-5-3--4--|	are!
D-1-/-5-|-1-/-5-------|

Second verse
e----------------|--------------|
b----------------|--------------|
g-------6--7-----|--------6--4--|
d-------6--7-----|--------6--4--|
a-2-/-6-4--5-----|-2-/-6--4--2--|
D-2-/-6----------|-2-/-6--------|
 ("Everytime...   "How can I believe...?"
 
e--------------------| This is strummed like the verses
b--------------------| only not as much.
g--11-----9------8---|
d--9------9------9---|
a--------------------|
D--------------------|
 "Forget it..."

  3rd verse
e---------------|
b---------------|
g--------7--8---|
d--------7--8---|
a-3-/-7--5--6---|
D-3-/-7---------|
 "There's a place...


e----------------|
b----------------|x2
g--------8--11---|
d--------8--11---|
a-4-/-8--6--9----|
D-4-/-8----------|
 "Just send away.."

 4th verse
e-----------------|
b-----------------|
g--------9-10-----|
d--------9-10-----| play once then play:
a-5-/-9--7-8------|	 /
D-5-/-9-----------|	/
 "It's a crime.."       /  
       	          /  
			
e-----------------|     
b-----------------|
g---------10-13---|x4
d---------10-13---|
a-6-/-10--8--11---|
D-6-/-10----------|


 Ending
e-------|
b-------|
g--8----|
d--8-6--|
a--6-6--|
D--6-6--|
Suggest correction
Creating personal tab
Creating personal tab
You can edit any tab online and save it as your Personal.

You can edit, replace or remove any tab part or add personal notes – all changes will be seen only by you.

Personal tabs can be accessed anytime from any device, even offline.
Learn more »
comments
print report bad tab
7 comments total. Showing first comments.
0 reply
b_ball_girl1021 104 Jun 04, 2007 10:48 AM

good job 5*

-1 reply
ordinarystory 112 Jun 21, 2008 04:57 PM

This song should be in Eb not Drop D. There is no open string notes using Drop D. :-(

0 reply
luckyshot60 61 Jun 23, 2008 03:28 PM

Drop D sounds great to me when I play it

guest
You may want to rate the tab now too:
select rating
Wanna post a correction for this tab? Suggest correction