Oops, an error
Loading. Please wait.
We have an official Forget It tab made by UG professional guitarists. Check out the tab »
×
6,478 views 1 this week
no commentswrite comment
1 2 3 4 5
2 more votes to show rating
add to favorites
×
Save as Personal and add changes to this tab that will be seen only by you. Learn more ›
×
You can save this tab as Personal to edit and correct it or add notes. All changes will be seen only by you. Learn more »
launch autoscroll
font size
0
reset
how to read this tab
guitar tuner
edit
Autoscroll
slow
fast
+/-
esc
set tempo
stop
Difficulty
intermediate
                         Song Name: Forget It
                         Artist: Breaking Benjamin
                         Tabbed by: AIM: o0medicate0o
                         Email: minuskid@hotmail.com


                                (Lead Guitar)
  ::Intro::      Natural Harmonics
E||--------------------------|----------------------------------|
B||--------------------------|----------------------------------|
G||--5-----5-----5-----5-----|--12------12------12------12------|
D||-----5-----5-----5-----5--|------12------12------12------12--|
A||--------------------------|----------------------------------|
D||--------------------------|----------------------------------|


         Natural Harmonics
--------------------------|----------------------------------|
--------------------------|----------------------------------|
--5-----5-----5-----5-----|--12------12------12------12------|
-----5-----5-----5-----5--|------12------12------12------12--|
--------------------------|----------------------------------|
--------------------------|----------------------------------|


         Natural Harmonics
--------------------------|----------------------------------|
--------------------------|----------------------------------|
--5-----5-----5-----5-----|--12------12------12------12------|
-----5-----5-----5-----5--|------12------12------12------12--|
--------------------------|----------------------------------|
--------------------------|----------------------------------|


         Natural Harmonics
--------------------------|----------------------------------|
--------------------------|----------------------------------|
--5-----5-----5-----5-----|--12------12------12------12------|
-----5-----5-----5-----5--|------12------12------12------12--|
--------------------------|----------------------------------|
--------------------------|----------------------------------|


         ::Verse::
|-----------------------------------|-----------------------------------||
|-----------------------------------|-----------------------------------||
|*----------------------------------|----------------------------------*||
|*--2-2-2-2-2-2-2-2-2-2-2-2-2-2-2-2-|--6-6-6-6-6-6-6-6-6-6-6-6-6-6-6-6-*||
|---2-2-2-2-2-2-2-2-2-2-2-2-2-2-2-2-|--6-6-6-6-6-6-6-6-6-6-6-6-6-6-6-6--||
|---2-2-2-2-2-2-2-2-2-2-2-2-2-2-2-2-|--6-6-6-6-6-6-6-6-6-6-6-6-6-6-6-6--||

----------------------------------|----------------------------------|
----------------------------------|----------------------------------|
--6-6-6-6-6-6-6-6-6-6-6-6-6-6-6-6-|--7-7-7-7-7-7-7-7-7-7-7-7-7-7-7-7-|
--6-6-6-6-6-6-6-6-6-6-6-6-6-6-6-6-|--7-7-7-7-7-7-7-7-7-7-7-7-7-7-7-7-|
--4-4-4-4-4-4-4-4-4-4-4-4-4-4-4-4-|--5-5-5-5-5-5-5-5-5-5-5-5-5-5-5-5-|
----------------------------------|----------------------------------|

----------------------------------|----------------------------------|
----------------------------------|----------------------------------|
----------------------------------|----------------------------------|
--2-2-2-2-2-2-2-2-2-2-2-2-2-2-2-2-|--6-6-6-6-6-6-6-6-6-6-6-6-6-6-6-6-|
--2-2-2-2-2-2-2-2-2-2-2-2-2-2-2-2-|--6-6-6-6-6-6-6-6-6-6-6-6-6-6-6-6-|
--2-2-2-2-2-2-2-2-2-2-2-2-2-2-2-2-|--6-6-6-6-6-6-6-6-6-6-6-6-6-6-6-6-|

----------------------------------|----------------------------------|
----------------------------------|----------------------------------|
--6-6-6-6-6-6-6-6-6-6-6-6-6-6-6-6-|--7-7-7-7-7-7-7-7-2-2-2-2-4-4-4-4-|
--6-6-6-6-6-6-6-6-6-6-6-6-6-6-6-6-|--7-7-7-7-7-7-7-7-2-2-2-2-4-4-4-4-|
--4-4-4-4-4-4-4-4-4-4-4-4-4-4-4-4-|--5-5-5-5-5-5-5-5-0-0-0-0-2-2-2-2-|
----------------------------------|----------------------------------|


       ::Chorus::
------------------------------------------|----------------------------------|
------------------------------------------|----------------------------------|
--11-11-11-11-11-11-11-11-9-9-9-9-9-9-9-9-|--8-8-8-8-8-8-8-8-8-8-8-8-8-8-8-8-|
--9-----9-----9-----9-----9---9---9---9---|--9---9---9---9---9---9---9---9---|
------------------------------------------|----------------------------------|
------------------------------------------|----------------------------------|

--------------------------------------------------|
--------------------------------------------------|
--11-11-11-11-11-11-11-11-11-11-11-11-11-11-11-11-|
--9-----9-----9-----9-----9-----9-----9-----9-----|
--------------------------------------------------|
--------------------------------------------------|


                                     ::Verse 2::
----------------------------------|---|---|---|---|
----------------------------------|---|---|---|---|
--9-9-9-9-9-9-9-9-9-9-9-9-9-9-9-9-|---|---|---|---| It's Blank Because I can't find the way to do it
--9---9---9---9---9---9---9---9---|---|---|---|---|
----------------------------------|---|---|---|---|
----------------------------------|---|---|---|---|


         ::Chorus::
|---------------------------------------------------|
|---------------------------------------------------|
|*--13-13-13-13-13-13-13-13/11-11-11-11-11-11-11-11-|
|*--11----11----11----11----11----11----11----11----|
|---------------------------------------------------|
|---------------------------------------------------|

--------------------------------------------------|
--------------------------------------------------|
--10-10-10-10-10-10-10-10-10-10-10-10-10-10-10-10-|
--11----11----11----11----11----11----11----11----|
--------------------------------------------------|
--------------------------------------------------|

--------------------------------------------------|
--------------------------------------------------|
--13-13-13-13-13-13-13-13-13-13-13-13-13-13-13-13-|
--11----11----11----11----11----11----11----11----|
--------------------------------------------------|
--------------------------------------------------|


                                                       ::Verse 3::
---------------------------------------------------||---|---|---|---|
---------------------------------------------------||---|---|---|---|
--11-11-11-11-11-11-11-11-11-11-11-11-11-11-11-11-*||---|---|---|---|
--11----11----11----11----11----11----11----11----*||---|---|---|---|It's Blank Because 
can't find the way to do it
---------------------------------------------------||---|---|---|---|
---------------------------------------------------||---|---|---|---|


          ::Chorus::
|---------------------------------------------------|
|---16-16-16-16-16-16-16-16-16-16-16-16-18-18-18-18-|
|*--15----15----15----15----15----15----15----15----|
|*--------------------------------------------------|
|---------------------------------------------------|
|---------------------------------------------------|

--------------------------------------------------|
--16-16-16-16-16-16-16-16-16-16-16-16-18-18-18-18-|
--15----15----15----15----15----15----15----15----|
--------------------------------------------------|
--------------------------------------------------|
--------------------------------------------------|

--------------------------------------------------|
--18-18-18-18-18-18-18-18-16-16-16-16-16-16-16-16-|
--15----15----15----15----15----15----15----15----|
--------------------------------------------------|
--------------------------------------------------|
--------------------------------------------------|

---------------------------------------------------||
--18-18-18-18-18-18-18-18-18-18-18-18-18-18-18-18--||
--15----15----15----15----15----15----15----15----*||
--------------------------------------------------*||
---------------------------------------------------||
---------------------------------------------------||


         ::Outro::
---------------------------------------------------|
---16-16-16-16-16-16-16-16-16-16-16-16-18-18-18-18-|
*--15----15----15----15----15----15----15----15----|
*--------------------------------------------------|
---------------------------------------------------|
---------------------------------------------------|

--------------------------------------------------|
--16-16-16-16-16-16-16-16-16-16-16-16-18-18-18-18-|
--15----15----15----15----15----15----15----15----|
--------------------------------------------------|
--------------------------------------------------|
--------------------------------------------------|

--------------------------------------------------|
--18-18-18-18-18-18-18-18-16-16-16-16-16-16-16-16-|
--15----15----15----15----15----15----15----15----|
--------------------------------------------------|
--------------------------------------------------|
--------------------------------------------------|


                                                         ::End::
---------------------------------------------------||--------------------|
--18-18-18-18-18-18-18-18-18-18-18-18-18-18-18-18--||--16----------------|
--15----15----15----15----15----15----15----15----*||--15----------------|
--------------------------------------------------*||--------------------|
---------------------------------------------------||--------------------|
---------------------------------------------------||--------------------|

------------------||
------------------||
------------------||
------------------||
------------------||
------------------||


(Rythme Guitar)
Natural Harmonic   ::Intro::
D#||------|------|----------------------------------|
A#||------|------|----------------------------------|
F#||------|------|----------------------------------|
C#||------|------|--1-1-1-1-1-1-1-1-1-1-1-1-1-1-1-1-|
G#||------|------|--1-1-1-1-1-1-1-1-1-1-1-1-1-1-1-1-|
C#||------|------|--1-1-1-1-1-1-1-1-1-1-1-1-1-1-1-1-|

----------------------------------|----------------------------------|
----------------------------------|----------------------------------|
----------------------------------|----------------------------------|
--5-5-5-5-5-5-5-5-5-5-5-5-5-5-5-5-|--1-1-1-1-1-1-1-1-1-1-1-1-1-1-1-1-|
--5-5-5-5-5-5-5-5-5-5-5-5-5-5-5-5-|--1-1-1-1-1-1-1-1-1-1-1-1-1-1-1-1-|
--5-5-5-5-5-5-5-5-5-5-5-5-5-5-5-5-|--1-1-1-1-1-1-1-1-1-1-1-1-1-1-1-1-|

----------------------------------|----------------------------------|
----------------------------------|----------------------------------|
----------------------------------|--5-5-5-5-5-5-5-5-5-5-5-5-5-5-5-5-|
--5-5-5-5-5-5-5-5-5-5-5-5-5-5-5-5-|--5-5-5-5-5-5-5-5-5-5-5-5-5-5-5-5-|
--5-5-5-5-5-5-5-5-5-5-5-5-5-5-5-5-|--3-3-3-3-3-3-3-3-3-3-3-3-3-3-3-3-|
--5-5-5-5-5-5-5-5-5-5-5-5-5-5-5-5-|----------------------------------|


                                        ::Verse::
----------------------------------||-----------------------------------|
----------------------------------||-----------------------------------|
--6-6-6-6-6-6-6-6-6-6-6-6-6-6-6-6-||*----------------------------------|
--6-6-6-6-6-6-6-6-6-6-6-6-6-6-6-6-||*--2-2-2-2-2-2-2-2-2-2-2-2-2-2-2-2-|
--4-4-4-4-4-4-4-4-4-4-4-4-4-4-4-4-||---2-2-2-2-2-2-2-2-2-2-2-2-2-2-2-2-|
----------------------------------||---2-2-2-2-2-2-2-2-2-2-2-2-2-2-2-2-|

-----------------------------------||----------------------------------|
-----------------------------------||----------------------------------|
----------------------------------*||--6-6-6-6-6-6-6-6-6-6-6-6-6-6-6-6-|
--6-6-6-6-6-6-6-6-6-6-6-6-6-6-6-6-*||--6-6-6-6-6-6-6-6-6-6-6-6-6-6-6-6-|
--6-6-6-6-6-6-6-6-6-6-6-6-6-6-6-6--||--4-4-4-4-4-4-4-4-4-4-4-4-4-4-4-4-|
--6-6-6-6-6-6-6-6-6-6-6-6-6-6-6-6--||----------------------------------|

----------------------------------|----------------------------------|
----------------------------------|----------------------------------|
--7-7-7-7-7-7-7-7-7-7-7-7-7-7-7-7-|----------------------------------|
--7-7-7-7-7-7-7-7-7-7-7-7-7-7-7-7-|--2-2-2-2-2-2-2-2-2-2-2-2-2-2-2-2-|
--5-5-5-5-5-5-5-5-5-5-5-5-5-5-5-5-|--2-2-2-2-2-2-2-2-2-2-2-2-2-2-2-2-|
----------------------------------|--2-2-2-2-2-2-2-2-2-2-2-2-2-2-2-2-|

----------------------------------|----------------------------------|
----------------------------------|----------------------------------|
----------------------------------|--6-6-6-6-6-6-6-6-6-6-6-6-6-6-6-6-|
--6-6-6-6-6-6-6-6-6-6-6-6-6-6-6-6-|--6-6-6-6-6-6-6-6-6-6-6-6-6-6-6-6-|
--6-6-6-6-6-6-6-6-6-6-6-6-6-6-6-6-|--4-4-4-4-4-4-4-4-4-4-4-4-4-4-4-4-|
--6-6-6-6-6-6-6-6-6-6-6-6-6-6-6-6-|----------------------------------|


                                       ::Chorus::
----------------------------------|----------------------------------|
----------------------------------|--5-5-5-5-5-5-5-5-5-5-5-5-5-5-5-5-|
--7-7-7-7-7-7-7-7-2-2-2-2-4-4-4-4-|--4-4-4-4-4-4-4-4-4-4-4-4-4-4-4-4-|
--7-7-7-7-7-7-7-7-2-2-2-2-4-4-4-4-|--2-2-2-2-2-2-2-2-2-2-2-2-2-2-2-2-|
--5-5-5-5-5-5-5-5-0-0-0-0-2-2-2-2-|--2-2-2-2-2-2-2-2-2-2-2-2-2-2-2-2-|
----------------------------------|--2-2-2-2-2-2-2-2-2-2-2-2-2-2-2-2-|

----------------------------------|----------------------------------|
--9-9-9-9-9-9-9-9-9-9-9-9-9-9-9-9-|--9-9-9-9-9-9-9-9-9-9-9-9-9-9-9-9-|
--8-8-8-8-8-8-8-8-8-8-8-8-8-8-8-8-|--6-6-6-6-6-6-6-6-6-6-6-6-6-6-6-6-|
--6-6-6-6-6-6-6-6-6-6-6-6-6-6-6-6-|--6-6-6-6-6-6-6-6-6-6-6-6-6-6-6-6-|
--6-6-6-6-6-6-6-6-6-6-6-6-6-6-6-6-|--4-4-4-4-4-4-4-4-4-4-4-4-4-4-4-4-|
--6-6-6-6-6-6-6-6-6-6-6-6-6-6-6-6-|----------------------------------|


                                       ::Verse 2::
--5-5-5-5-5-5-5-5-5-5-5-5-5-5-5-5-|----------------------------------|
--5-5-5-5-5-5-5-5-5-5-5-5-5-5-5-5-|----------------------------------|
--2-2-2-2-2-2-2-2-2-2-2-2-2-2-2-2-|----------------------------------|
--2-2-2-2-2-2-2-2-2-2-2-2-2-2-2-2-|--3-3-3-3-3-3-3-3-3-3-3-3-3-3-3-3-|
--0-0-0-0-0-0-0-0-0-0-0-0-0-0-0-0-|--3-3-3-3-3-3-3-3-3-3-3-3-3-3-3-3-|
----------------------------------|--3-3-3-3-3-3-3-3-3-3-3-3-3-3-3-3-|

----------------------------------|----------------------------------|
----------------------------------|----------------------------------|
----------------------------------|--7-7-7-7-7-7-7-7-7-7-7-7-7-7-7-7-|
--7-7-7-7-7-7-7-7-7-7-7-7-7-7-7-7-|--7-7-7-7-7-7-7-7-7-7-7-7-7-7-7-7-|
--7-7-7-7-7-7-7-7-7-7-7-7-7-7-7-7-|--5-5-5-5-5-5-5-5-5-5-5-5-5-5-5-5-|
--7-7-7-7-7-7-7-7-7-7-7-7-7-7-7-7-|----------------------------------|


                                        ::Chorus::
----------------------------------||-----------------------------------|
----------------------------------||---7-7-7-7-7-7-7-7-7-7-7-7-7-7-7-7-|
--3-3-3-3-3-3-3-3-3-3-3-3-3-3-3-3-||*--6-6-6-6-6-6-6-6-6-6-6-6-6-6-6-6-|
--3-3-3-3-3-3-3-3-3-3-3-3-3-3-3-3-||*--4-4-4-4-4-4-4-4-4-4-4-4-4-4-4-4-|
--1-1-1-1-1-1-1-1-1-1-1-1-1-1-1-1-||---4-4-4-4-4-4-4-4-4-4-4-4-4-4-4-4-|
----------------------------------||---4-4-4-4-4-4-4-4-4-4-4-4-4-4-4-4-|

--------------------------------------------------|
--9--9--9--9--9--9--9--9--9--9--9--9--9--9--9--9--|
--10-10-10-10-10-10-10-10-10-10-10-10-10-10-10-10-|
--8--8--8--8--8--8--8--8--8--8--8--8--8--8--8--8--|
--8--8--8--8--8--8--8--8--8--8--8--8--8--8--8--8--|
--8--8--8--8--8--8--8--8--8--8--8--8--8--8--8--8--|

----------------------------------|--2-2-2-2-2-2-2-2-2-2-2-2-2-2-2-2--||
--7-7-7-7-7-7-7-7-7-7-7-7-7-7-7-7-|--4-4-4-4-4-4-4-4-4-4-4-4-4-4-4-4--||
--8-8-8-8-8-8-8-8-8-8-8-8-8-8-8-8-|--4-4-4-4-4-4-4-4-4-4-4-4-4-4-4-4-*||
--8-8-8-8-8-8-8-8-8-8-8-8-8-8-8-8-|--4-4-4-4-4-4-4-4-4-4-4-4-4-4-4-4-*||
--6-6-6-6-6-6-6-6-6-6-6-6-6-6-6-6-|--2-2-2-2-2-2-2-2-2-2-2-2-2-2-2-2--||
----------------------------------|-----------------------------------||


      ::Verse 3::
----------------------------------|----------------------------------|
----------------------------------|----------------------------------|
----------------------------------|----------------------------------|
--5-5-5-5-5-5-5-5-5-5-5-5-5-5-5-5-|--9-9-9-9-9-9-9-9-9-9-9-9-9-9-9-9-|
--5-5-5-5-5-5-5-5-5-5-5-5-5-5-5-5-|--9-9-9-9-9-9-9-9-9-9-9-9-9-9-9-9-|
--5-5-5-5-5-5-5-5-5-5-5-5-5-5-5-5-|--9-9-9-9-9-9-9-9-9-9-9-9-9-9-9-9-|

----------------------------------|
----------------------------------|
--9-9-9-9-9-9-9-9-9-9-9-9-9-9-9-9-|
--9-9-9-9-9-9-9-9-9-9-9-9-9-9-9-9-|
--7-7-7-7-7-7-7-7-7-7-7-7-7-7-7-7-|
----------------------------------|

--------------------------------------------------|
--------------------------------------------------|
--10-10-10-10-10-10-10-10-10-10-10-10-10-10-10-10-|
--10-10-10-10-10-10-10-10-10-10-10-10-10-10-10-10-|
--8--8--8--8--8--8--8--8--8--8--8--8--8--8--8--8--|
--------------------------------------------------|


     ::Chorus::
|-----------------------------------|
|---8-8-8-8-8-8-8-8-8-8-8-8-8-8-8-8-|
|*--8-8-8-8-8-8-8-8-8-8-8-8-8-8-8-8-|
|*--6-6-6-6-6-6-6-6-6-6-6-6-6-6-6-6-|
|---6-6-6-6-6-6-6-6-6-6-6-6-6-6-6-6-|
|---6-6-6-6-6-6-6-6-6-6-6-6-6-6-6-6-|

--------------------------------------------------|
--11-11-11-11-11-11-11-11-11-11-11-11-11-11-11-11-|
--12-12-12-12-12-12-12-12-12-12-12-12-12-12-12-12-|
--10-10-10-10-10-10-10-10-10-10-10-10-10-10-10-10-|
--10-10-10-10-10-10-10-10-10-10-10-10-10-10-10-10-|
--10-10-10-10-10-10-10-10-10-10-10-10-10-10-10-10-|

--8--8--8--8--8--8--8--8--8--8--8--8--8--8--8--8--|
--8--8--8--8--8--8--8--8--8--8--8--8--8--8--8--8--|
--10-10-10-10-10-10-10-10-10-10-10-10-10-10-10-10-|
--10-10-10-10-10-10-10-10-10-10-10-10-10-10-10-10-|
--8--8--8--8--8--8--8--8--8--8--8--8--8--8--8--8--|
--------------------------------------------------|


                                           ::Outro::
--4-4-4-4-4-4-4-4-4-4-4-4-4-4-4-4--||-----------------------------------|
--4-4-4-4-4-4-4-4-4-4-4-4-4-4-4-4--||---8-8-8-8-8-8-8-8-8-8-8-8-8-8-8-8-|
--6-6-6-6-6-6-6-6-6-6-6-6-6-6-6-6-*||*--8-8-8-8-8-8-8-8-8-8-8-8-8-8-8-8-|
--6-6-6-6-6-6-6-6-6-6-6-6-6-6-6-6-*||*--6-6-6-6-6-6-6-6-6-6-6-6-6-6-6-6-|
--4-4-4-4-4-4-4-4-4-4-4-4-4-4-4-4--||---6-6-6-6-6-6-6-6-6-6-6-6-6-6-6-6-|
-----------------------------------||---6-6-6-6-6-6-6-6-6-6-6-6-6-6-6-6-|

--------------------------------------------------|
--11-11-11-11-11-11-11-11-11-11-11-11-11-11-11-11-|
--12-12-12-12-12-12-12-12-12-12-12-12-12-12-12-12-|
--10-10-10-10-10-10-10-10-10-10-10-10-10-10-10-10-|
--10-10-10-10-10-10-10-10-10-10-10-10-10-10-10-10-|
--10-10-10-10-10-10-10-10-10-10-10-10-10-10-10-10-|

--8--8--8--8--8--8--8--8--8--8--8--8--8--8--8--8--|
--8--8--8--8--8--8--8--8--8--8--8--8--8--8--8--8--|
--10-10-10-10-10-10-10-10-10-10-10-10-10-10-10-10-|
--10-10-10-10-10-10-10-10-10-10-10-10-10-10-10-10-|
--8--8--8--8--8--8--8--8--8--8--8--8--8--8--8--8--|
--------------------------------------------------|


                                        ::End::
--4-4-4-4-4-4-4-4-4-4-4-4-4-4-4-4--||-------------------|------------------|
--4-4-4-4-4-4-4-4-4-4-4-4-4-4-4-4--||--8----------------|------------------|
--6-6-6-6-6-6-6-6-6-6-6-6-6-6-6-6-*||--8----------------|------------------|
--6-6-6-6-6-6-6-6-6-6-6-6-6-6-6-6-*||--6----------------|------------------|
--4-4-4-4-4-4-4-4-4-4-4-4-4-4-4-4--||--6----------------|------------------|
-----------------------------------||--6----------------|------------------|

            
            
Suggest correction
Creating personal tab
Creating personal tab
You can edit any tab online and save it as your Personal.

You can edit, replace or remove any tab part or add personal notes – all changes will be seen only by you.

Personal tabs can be accessed anytime from any device, even offline.
Learn more »
Give kudos to tab author, rate the tab!
1 2 3 4 5
comments
print report bad tab
guest
Wanna post a correction for this tab? Suggest correction