Oops, an error
Loading. Please wait.
We have an official Give Me A Sign tab made by UG professional guitarists. Check out the tab »
×
62,662 views 69 this week
7 commentsread comments
1 2 3 4 5
x 19
add to favorites
×
Save as Personal and add changes to this tab that will be seen only by you. Learn more ›
×
You can save this tab as Personal to edit and correct it or add notes. All changes will be seen only by you. Learn more »
launch autoscroll
font size
0
reset
how to read this tab
guitar tuner
backing track
0:00
0:00
edit
Autoscroll
slow
fast
+/-
esc
set tempo
stop
----------------------------------------------------------------------------
                                Give Me A Sign
                              Breaking Benjamin
----------------------------------------------------------------------------

This is a suggested song that I have come to like a lot. The variation between the
lead guitar and rhythmic guitar is beautiful, and the lyrics are catchy. It is so 
sad that BB had to kick the bucket, but *sooner or later* everything has to end... Enjoy!

Username: dkm817 (same on X box live)
Youtube Cover: http://www.youtube.com/watch?v=9ymnI63OJG8
Email: guitardrums@rockfan.com

Guitar 1 Rhythmic (C# G# C# F# A# D#)
Guitar 2 Lead     (C# G# C# F# A# D#)
Guitar 3 Mixed    (C# G# C# F# A# D#)

Intro

Guitar 1
D#-----------------------------------------------|
A#-----------------------------------------------|
F#-----------------------------------------------|
C#-2--2--2--2--0--0--0--0--7--7--7--7--7--7---9~-|
G#-2--2--2--2--0--0--0--0--7--7--7--7--7--7---9~-|
C#-2--2--2--2--0--0--0--0--7--7--7--7--7--7---9~-|

Guitar 2
D#-----------------------------------------------|
A#-------7--8---------7--8--------------------7~-|
F#--------------------------------7~~~-9~~~------|
C#----9--------0---9--------10~~~----------------|
G#-7---------------------------------------------|
C#-----------------------------------------------|

Guitar 3
D#-----------------------------------------------|
A#-------7--8---------7--8--------------------7~-|
F#-----------------------------------------------|
C#----9--------0---9--------10~~~----------------|
G#-7------------------------------9~~~-10~~------|
C#-----------------------------------------------|

Guitar 1
D#-------------------------------------------------|
A#-------------------------------------------------|
F#-------------------------------------------------|
C#-10-10-10-10-10-10-10-10-5--5--5--5--0--0--------|
G#-10-10-10-10-10-10-10-10-5--5--5--5--0--0--------|
C#-10-10-10-10-10-10-10-10-5--5--5--5--0--0--4h5p4-|

Guitar 2
D#-------------------------------------------------|
A#-8-----------------------------7--8--------7h8p7-|
F#-------------9*----------------------------------|
C#----10-9--10----10-9--10----9--------0--9--------|
G#-------------------------10----------------------|
C#-------------------------------------------------|

Guitar 3
D#-------------------------------------------------|
A#-8-----------------------------7--8--------7h8p7-|
F#-------------9-----------------------------------|
C#----10-9--10----10-9--10----9--------0--9--------|
G#-------------------------10----------------------|
C#-------------------------------------------------|

Verse 1

Guitar 1
D#----------------------
A#-7~~~~~~~~~~~~~~~~~~~~
F#-6~~~~~~~~~~~~~~~~~~~~
C#-5~~~~~~~~~~~~~~~~~~~~
G#-5~~~~~~~~~~~~~~~~~~~~
C#-5~~~~~~~~~~~~~~~~~~~~

Guitar 2
D#----------------------
A#-8~~~~~~~~~~~~~~~~~~~~
F#----------------------
C#----------------------
G#----------------------
C#----------------------

Guitar 3 Acoustic
D#-3~-3~-3~-3-3~-3~~~-2~-2~-2~-2-2~-2~~~-0~-0~-0~-0-0~-0~~~-3~-3~-3~-3-3~-3~~-|
A#-3~-3~-3~-3-3~-3~~~-3~-3~-3~-3-3~-3~~~-1~-1~-1~-1-1~-1~~~-3~-3~-3~-3-3~-3~~-|
F#-4~-4~-4~-4-4~-4~~~-4~-4~-4~-4-4~-4~~~-2~-2~-2~-2-2~-2~~~-5~-5~-5~-5-5~-5~~-|
C#-5~-5~-5~-5-5~-5~~~-4~-4~-4~-4-4~-4~~~-2~-2~-2~-2-2~-2~~~-5~-5~-5~-5-5~-5~~-|
G#-5~-5~-5~-5-5~-5~~~-2~-2~-2~-2-2~-2~~~-0~-0~-0~-0-0~-0~~~-3~-3~-3~-3-3~-3~~-|
C#----------------------------------------------------------------------------|

Guitar 2
D#-----------------------------0~~~~~~~~----------3~~~~~~~~----------0~~~-2-3-|
A#----------3~~~~~~~~--------------------------0~~~~~~~~~~~-------3~~~~~~-----|
F#-------0~~~~~~~~~~~-------0~~~~~~~~~~~-----------------------0~~~~~~-0~~----|
C#----0~~~~~~~~~~~~~~----4~~~~~~~~~~~~~~----2~~~~~~~~~~~~~~--------------0----|
G#-5~~~~~~~~~~~~~~~~~-2~~~~~~~~~~~~~~~~~-0~~~~~~~~~~~~~~~~~-3~~~~~~~~~~~~-----|
C#----------------------------------------------------------------------------|

Guitar 3
D#-3~-3~-3~-3-3~-3~~~-2~-2~-2~-2-2~-2~~~-0~-0~-0~-0-0~-0~~~-3~-3~-3~-3-3~-3~~-|
A#-3~-3~-3~-3-3~-3~~~-3~-3~-3~-3-3~-3~~~-1~-1~-1~-1-1~-1~~~-3~-3~-3~-3-3~-3~~-|
F#-4~-4~-4~-4-4~-4~~~-4~-4~-4~-4-4~-4~~~-2~-2~-2~-2-2~-2~~~-5~-5~-5~-5-5~-5~~-|
C#-5~-5~-5~-5-5~-5~~~-4~-4~-4~-4-4~-4~~~-2~-2~-2~-2-2~-2~~~-5~-5~-5~-5-5~-5~~-|
G#-5~-5~-5~-5-5~-5~~~-2~-2~-2~-2-2~-2~~~-0~-0~-0~-0-0~-0~~~-3~-3~-3~-3-3~-3~~-|
C#----------------------------------------------------------------------------|

Chorus

Guitar 1 & 3
D#---------------------------------------------------------------|
A#---------------------------------------------------------------|
F#---------------------------------5---5---5---5---5---5---5---5-|
C#-2---2---2---2---0---0---0---0---5---5---5---5---5---5---5---5-|
G#-2---2---2---2---0---0---0---0---3---3---3---3---3---3---3---3-|
C#-2---2---2---2---0---0---0---0---------------------------------|

Guitar 2
D#-------------------------------------------------------------10-|
A#-----12--10--12~~~---12--10----------12--10--12--13--12--10-----|
F#-----------------------------12~~~------------------------------|
C#----------------------------------------------------------------|
G#----------------------------------------------------------------|
C#----------------------------------------------------------------|

Guitar 1 & 3
D#---------------------------------------------------------------|
A#---------------------------------------------------------------|
F#---------------------------------------------------------------|
C#-5---5---5---5---5---5---5---5---0---0---0---0---0---0---1---1-|
G#-5---5---5---5---5---5---5---5---0---0---0---0---0---0---1---1-|
C#-5---5---5---5---5---5---5---5---0---0---0---0---0---0---1---1-|

Guitar 2
D#-----------------------------------------------------------------------------|
A#-----12--10------12--12-12-13--13-13-10--10-10---------------------10--10-10-|
F#-12----------12--------------------------------12--12-12-11--11-11-----------|
C#-----------------------------------------------------------------------------|
G#-----------------------------------------------------------------------------|
C#-----------------------------------------------------------------------------|

Guitar 1 & 3
D#---------------------------------------------------------------|
A#---------------------------------------------------------------|
F#---------------------------------5---5---5---5---5---5---5---5-|
C#-2---2---2---2---0---0---0---0---5---5---5---5---5---5---5---5-|
G#-2---2---2---2---0---0---0---0---3---3---3---3---3---3---3---3-|
C#-2---2---2---2---0---0---0---0---------------------------------|

Guitar 2
D#-------------------------------------------------10-------------|
A#-----12--10--12~~~---12--10----------12--10--12------12--10--12-|
F#-----------------------------12~~~------------------------------|
C#----------------------------------------------------------------|
G#----------------------------------------------------------------|
C#----------------------------------------------------------------|

Guitar 1 & 3
D#---------------------------------------------------------------|
A#---------------------------------------------------------------|
F#---------------------------------------------------------------|
C#-5---5---5---5---5---5---5---5---0---0---0---0---0---0---1---1-|
G#-5---5---5---5---5---5---5---5---0---0---0---0---0---0---1---1-|
C#-5---5---5---5---5---5---5---5---0---0---0---0---0---0---1---1-|

Guitar 2
D#-----------------------------------------------------------------------------|
A#-----12--10------12--12-12-13--13-13-10--10-10---------------------10--10-10-|
F#-12----------12--------------------------------12--12-12-11--11-11-----------|
C#-----------------------------------------------------------------------------|
G#-----------------------------------------------------------------------------|
C#-----------------------------------------------------------------------------|

Guitar 1 & 3
D#---------------------------------------------------------------|
A#---------------------------------------------------------------|
F#---------------------------------------------5~~~~~~-5---5---5-|
C#-2---2---2---2---0---0---0---0---5---5-------5~~~~~~-5---5---5-|
G#-2---2---2---2---0---0---0---0---5---5-------3~~~~~~-3---3---3-|
C#-2---2---2---2---0---0---0---0---5---5-------------------------|

Guitar 2
D#---------------------------------------------------------------|
A#-----12--10--12~~~---12--10----------10--12--------------------|
F#-----------------------------12~~~-----------12~~~~~~~~~~~~~~~-|
C#---------------------------------------------------------------|
G#---------------------------------------------------------------|
C#---------------------------------------------------------------|

Guitar 1 & 3
D#---------------------------------------------------------------|
A#---------------------------------------------------------------|
F#---------------------------------------------------------------|
C#-5---5---5---5---5---5---5---5---0---0---0---0---0---0---0---0-|
G#-5---5---5---5---5---5---5---5---0---0---0---0---0---0---0---0-|
C#-5---5---5---5---5---5---5---5---0---0---0---0---0---0---0---0-|

Guitar 2
D#--------------------------------------------------------------|
A#-----------------------------------------------10-------------|
F#-----12--11--12~~~---12--11--12~~~---12-11-12------12--11-----|
C#-----------------------------------------------------------12-|
G#--------------------------------------------------------------|
C#--------------------------------------------------------------|

Break Off

Guitar 1
D#-----------------------------------------------|
A#-----------------------------------------------|
F#-----------------------------------------------|
C#-2--2--2--2--0--0--0--0--7--7--7--7--7--7---9~-|
G#-2--2--2--2--0--0--0--0--7--7--7--7--7--7---9~-|
C#-2--2--2--2--0--0--0--0--7--7--7--7--7--7---9~-|

Guitar 2
D#-----------------------------------------------|
A#-------7--8---------7--8--------------------7~-|
F#--------------------------------7~~~-9~~~------|
C#----9--------0---9--------10~~~----------------|
G#-7---------------------------------------------|
C#-----------------------------------------------|

Guitar 3
D#-----------------------------------------------|
A#-------7--8---------7--8--------------------7~-|
F#-----------------------------------------------|
C#----9--------0---9--------10~~~----------------|
G#-7------------------------------9~~~-10~~------|
C#-----------------------------------------------|

Guitar 1
D#-------------------------------------------------|
A#-------------------------------------------------|
F#-------------------------------------------------|
C#-10-10-10-10-10-10-10-10-5--5--5--5--0--0--------|
G#-10-10-10-10-10-10-10-10-5--5--5--5--0--0--------|
C#-10-10-10-10-10-10-10-10-5--5--5--5--0--0--4h5p4-|

Guitar 2
D#-------------------------------------------------|
A#-8-----------------------------7--8--------7h8p7-|
F#-------------9*----------------------------------|
C#----10-9--10----10-9--10----9--------0--9--------|
G#-------------------------10----------------------|
C#-------------------------------------------------|

Guitar 3
D#-------------------------------------------------|
A#-8-----------------------------7--8--------7h8p7-|
F#-------------9-----------------------------------|
C#----10-9--10----10-9--10----9--------0--9--------|
G#-------------------------10----------------------|
C#-------------------------------------------------|

Verse 2

Guitar 1
D#----------------------
A#-7~~~~~~~~~~~~~~~~~~~~
F#-6~~~~~~~~~~~~~~~~~~~~
C#-5~~~~~~~~~~~~~~~~~~~~
G#-5~~~~~~~~~~~~~~~~~~~~
C#-5~~~~~~~~~~~~~~~~~~~~

Guitar 2
D#----------------------------------------------------------------------------|
A#----------3~~~~~~~~----------3~~~~~~~~----------1~~~~~~~~----------3~~~~~---|
F#-------0~~~~~~~~~~~-------0~~~~~~~~~~~-------0~~~~~~~~~~~-------0~~~~~~~~---|
C#----0~~~~~~~~~~~~~~----4~~~~~~~~~~~~~~----2~~~~~~~~~~~~~~----2~~~~~~~~~~~-0-|
G#-5~~~~~~~~~~~~~~~~~-2~~~~~~~~~~~~~~~~~-0~~~~~~~~~~~~~~~~~-3~~~~~~~~~~~~~~---|
C#----------------------------------------------------------------------------|

Guitar 3 Acoustic
D#-3~-3~-3~-3-3~-3~~~-2~-2~-2~-2-2~-2~~~-0~-0~-0~-0-0~-0~~~-3~-3~-3~-3-3~-3~~-|
A#-3~-3~-3~-3-3~-3~~~-3~-3~-3~-3-3~-3~~~-1~-1~-1~-1-1~-1~~~-3~-3~-3~-3-3~-3~~-|
F#-4~-4~-4~-4-4~-4~~~-4~-4~-4~-4-4~-4~~~-2~-2~-2~-2-2~-2~~~-5~-5~-5~-5-5~-5~~-|
C#-5~-5~-5~-5-5~-5~~~-4~-4~-4~-4-4~-4~~~-2~-2~-2~-2-2~-2~~~-5~-5~-5~-5-5~-5~~-|
G#-5~-5~-5~-5-5~-5~~~-2~-2~-2~-2-2~-2~~~-0~-0~-0~-0-0~-0~~~-3~-3~-3~-3-3~-3~~-|
C#----------------------------------------------------------------------------|

Guitar 2
D#-----------------------------0~~~~~~~~----------3~~~~~~~~----------0~~~-2-3-|
A#----------3~~~~~~~~--------------------------0~~~~~~~~~~~-------3~~~~~~-----|
F#-------0~~~~~~~~~~~-------0~~~~~~~~~~~-----------------------0~~~~~~-0~~----|
C#----0~~~~~~~~~~~~~~----4~~~~~~~~~~~~~~----2~~~~~~~~~~~~~~--------------0----|
G#-5~~~~~~~~~~~~~~~~~-2~~~~~~~~~~~~~~~~~-0~~~~~~~~~~~~~~~~~-3~~~~~~~~~~~~-----|
C#----------------------------------------------------------------------------|

Guitar 3
D#-3~-3~-3~-3-3~-3~~~-2~-2~-2~-2-2~-2~~~-0~-0~-0~-0-0~-0~~~-3~-3~-3~-3-3~-3~~-|
A#-3~-3~-3~-3-3~-3~~~-3~-3~-3~-3-3~-3~~~-1~-1~-1~-1-1~-1~~~-3~-3~-3~-3-3~-3~~-|
F#-4~-4~-4~-4-4~-4~~~-4~-4~-4~-4-4~-4~~~-2~-2~-2~-2-2~-2~~~-5~-5~-5~-5-5~-5~~-|
C#-5~-5~-5~-5-5~-5~~~-4~-4~-4~-4-4~-4~~~-2~-2~-2~-2-2~-2~~~-5~-5~-5~-5-5~-5~~-|
G#-5~-5~-5~-5-5~-5~~~-2~-2~-2~-2-2~-2~~~-0~-0~-0~-0-0~-0~~~-3~-3~-3~-3-3~-3~~-|
C#----------------------------------------------------------------------------|

Chorus

Guitar 1 & 3
D#---------------------------------------------------------------|
A#---------------------------------------------------------------|
F#---------------------------------5---5---5---5---5---5---5---5-|
C#-2---2---2---2---0---0---0---0---5---5---5---5---5---5---5---5-|
G#-2---2---2---2---0---0---0---0---3---3---3---3---3---3---3---3-|
C#-2---2---2---2---0---0---0---0---------------------------------|

Guitar 2
D#-------------------------------------------------------------10-|
A#-----12--10--12~~~---12--10----------12--10--12--13--12--10-----|
F#-----------------------------12~~~------------------------------|
C#----------------------------------------------------------------|
G#----------------------------------------------------------------|
C#----------------------------------------------------------------|

Guitar 1 & 3
D#---------------------------------------------------------------|
A#---------------------------------------------------------------|
F#---------------------------------------------------------------|
C#-5---5---5---5---5---5---5---5---0---0---0---0---0---0---1---1-|
G#-5---5---5---5---5---5---5---5---0---0---0---0---0---0---1---1-|
C#-5---5---5---5---5---5---5---5---0---0---0---0---0---0---1---1-|

Guitar 2
D#-----------------------------------------------------------------------------|
A#-----12--10------12--12-12-13--13-13-10--10-10---------------------10--10-10-|
F#-12----------12--------------------------------12--12-12-11--11-11-----------|
C#-----------------------------------------------------------------------------|
G#-----------------------------------------------------------------------------|
C#-----------------------------------------------------------------------------|

Guitar 1 & 3
D#---------------------------------------------------------------|
A#---------------------------------------------------------------|
F#---------------------------------5---5---5---5---5---5---5---5-|
C#-2---2---2---2---0---0---0---0---5---5---5---5---5---5---5---5-|
G#-2---2---2---2---0---0---0---0---3---3---3---3---3---3---3---3-|
C#-2---2---2---2---0---0---0---0---------------------------------|

Guitar 2
D#-------------------------------------------------10-------------|
A#-----12--10--12~~~---12--10----------12--10--12------12--10--12-|
F#-----------------------------12~~~------------------------------|
C#----------------------------------------------------------------|
G#----------------------------------------------------------------|
C#----------------------------------------------------------------|

Guitar 1 & 3
D#---------------------------------------------------------------|
A#---------------------------------------------------------------|
F#---------------------------------------------------------------|
C#-5---5---5---5---5---5---5---5---0---0---0---0---0---0---1---1-|
G#-5---5---5---5---5---5---5---5---0---0---0---0---0---0---1---1-|
C#-5---5---5---5---5---5---5---5---0---0---0---0---0---0---1---1-|

Guitar 2
D#-----------------------------------------------------------------------------|
A#-----12--10------12--12-12-13--13-13-10--10-10---------------------10--10-10-|
F#-12----------12--------------------------------12--12-12-11--11-11-----------|
C#-----------------------------------------------------------------------------|
G#-----------------------------------------------------------------------------|
C#-----------------------------------------------------------------------------|

Guitar 1 & 3
D#---------------------------------------------------------------|
A#---------------------------------------------------------------|
F#---------------------------------------------5~~~~~~-5---5---5-|
C#-2---2---2---2---0---0---0---0---5---5-------5~~~~~~-5---5---5-|
G#-2---2---2---2---0---0---0---0---5---5-------3~~~~~~-3---3---3-|
C#-2---2---2---2---0---0---0---0---5---5-------------------------|

Guitar 2
D#---------------------------------------------------------------|
A#-----12--10--12~~~---12--10----------10--12--------------------|
F#-----------------------------12~~~-----------12~~~~~~~~~~~~~~~-|
C#---------------------------------------------------------------|
G#---------------------------------------------------------------|
C#---------------------------------------------------------------|

Guitar 1 & 3
D#---------------------------------------------------------------|
A#---------------------------------------------------------------|
F#---------------------------------------------------------------|
C#-5---5---5---5---5---5---5---5---0---0---0---0---0---0---0---0-|
G#-5---5---5---5---5---5---5---5---0---0---0---0---0---0---0---0-|
C#-5---5---5---5---5---5---5---5---0---0---0---0---0---0---0---0-|

Guitar 2
D#--------------------------------------------------------------|
A#-----------------------------------------------10-------------|
F#-----12--11--12~~~---12--11--12~~~---12-11-12------12--11-----|
C#-----------------------------------------------------------12-|
G#--------------------------------------------------------------|
C#--------------------------------------------------------------|

Interlude

Guitar 1 & 3
D#---------------------------------------------------------------|
A#---------------------------------------------------------------|
F#-5---5---5---5---5---5-----------------------------------------|
C#-5---5---5---5---5---5---0~~~~~~-2---2---2---2---2---2---0~~~~-|
G#-3---3---3---3---3---3---0~~~~~~-2---2---2---2---2---2---0~~~~-|
C#-------------------------0~~~~~~-2---2---2---2---2---2---0~~~~-|

Guitar 2
D#-------------------------------------------------------------10~~~-|
A#-----12--10--12~~~---12--10----------12--10--12~~~---12--10--------|
F#-----------------------------12~~~---------------------------------|
C#-------------------------------------------------------------------|
G#-------------------------------------------------------------------|
C#-------------------------------------------------------------------|

Guitar 1 & 3
D#---------------------------------------------------------------|
A#---------------------------------------------------------------|
F#-5---5---5---5---5---5---5---5---------------------------------|
C#-5---5---5---5---5---5---5---5---5---5--------0~~~~~-0---0---0-|
G#-3---3---3---3---3---3---3---3---5---5--------0~~~~~-0---0---0-|
C#---------------------------------5---5--------0~~~~~-0---0---0-|

Guitar 2
D#-------------------------------------------------------------------|
A#-----12--10--12~~~---12--10----------10--12--10~~~~~---------------|
F#-----------------------------12~---------------------12--11--12-10-|
C#-------------------------------------------------------------------|
G#-------------------------------------------------------------------|
C#-------------------------------------------------------------------|

Guitar 1
D#---------------------------------------------------------------|
A#---------------------------------------------------------------|
F#-5---5---5---5---5---5-----------------------------------------|
C#-5---5---5---5---5---5---0~~~~~~-2---2---2---2---2---2---0~~~~-|
G#-3---3---3---3---3---3---0~~~~~~-2---2---2---2---2---2---0~~~~-|
C#-------------------------0~~~~~~-2---2---2---2---2---2---0~~~~-|

Guitar 2
D#-------------------------------------------------------------10~~~-|
A#-----12--10--12~~~---12--10----------12--10--12~~~---12--10--------|
F#-----------------------------12~~~---------------------------------|
C#-------------------------------------------------------------------|
G#-------------------------------------------------------------------|
C#-------------------------------------------------------------------|

Guitar 3
D#-------------------------------------------------------------------|
A#-------------------------------------------------------------10~~~-|
F#-----12--11--12~~~---12--11----------12--11--12~~~---12--11--------|
C#-----------------------------12~~~---------------------------------|
G#-------------------------------------------------------------------|
C#-------------------------------------------------------------------|

Guitar 1
D#---------------------------------------------------------------|
A#---------------------------------------------------------------|
F#-5---5---5---5---5---5---5---5---------------------------------|
C#-5---5---5---5---5---5---5---5---5---5--------0~~~~~-0---0---0-|
G#-3---3---3---3---3---3---3---3---5---5--------0~~~~~-0---0---0-|
C#---------------------------------5---5--------0~~~~~-0---0---0-|

Guitar 2
D#-------------------------------------------------------------------|
A#-----12--10--12~~~---12--10----------10--12--10~~~~~---------------|
F#-----------------------------12~---------------------12--11--12-10-|
C#-------------------------------------------------------------------|
G#-------------------------------------------------------------------|
C#-------------------------------------------------------------------|

Guitar 3
D#-------------------------------------------------------------------|
A#-------------------------------------------------------------------|
F#-----12--11--12~~~---12--11----------11--12----------12--11--12-10-|
C#-----------------------------12~-------------12~~~~~---------------|
G#-------------------------------------------------------------------|
C#-------------------------------------------------------------------|

All Guitars
D#--------------------------------------|
A#--------------------------------------|
F#-5~~~~~~~~~~~~~~~~~~~~~~~~------------|
C#-5~~~~~~~~~~~~~~~~~~~~~~~~-x--x--x--x-|
G#-3~~~~~~~~~~~~~~~~~~~~~~~~-x--x--x--x-|
C#---------------------------x--x--x--x-|

Chorus

Guitar 1 & 3
D#---------------------------------------------------------------|
A#---------------------------------------------------------------|
F#---------------------------------5---5---5---5---5---5---5---5-|
C#-2---2---2---2---0---0---0---0---5---5---5---5---5---5---5---5-|
G#-2---2---2---2---0---0---0---0---3---3---3---3---3---3---3---3-|
C#-2---2---2---2---0---0---0---0---------------------------------|

Guitar 2
D#-------------------------------------------------------------10-|
A#-----12--10--12~~~---12--10----------12--10--12--13--12--10-----|
F#-----------------------------12~~~------------------------------|
C#----------------------------------------------------------------|
G#----------------------------------------------------------------|
C#----------------------------------------------------------------|

Guitar 1 & 3
D#---------------------------------------------------------------|
A#---------------------------------------------------------------|
F#---------------------------------------------------------------|
C#-5---5---5---5---5---5---5---5---0---0---0---0---0---0---1---1-|
G#-5---5---5---5---5---5---5---5---0---0---0---0---0---0---1---1-|
C#-5---5---5---5---5---5---5---5---0---0---0---0---0---0---1---1-|

Guitar 2
D#-----------------------------------------------------------------------------|
A#-----12--10------12--12-12-13--13-13-10--10-10---------------------10--10-10-|
F#-12----------12--------------------------------12--12-12-11--11-11-----------|
C#-----------------------------------------------------------------------------|
G#-----------------------------------------------------------------------------|
C#-----------------------------------------------------------------------------|

Guitar 1 & 3
D#---------------------------------------------------------------|
A#---------------------------------------------------------------|
F#---------------------------------5---5---5---5---5---5---5---5-|
C#-2---2---2---2---0---0---0---0---5---5---5---5---5---5---5---5-|
G#-2---2---2---2---0---0---0---0---3---3---3---3---3---3---3---3-|
C#-2---2---2---2---0---0---0---0---------------------------------|

Guitar 2
D#-------------------------------------------------10-------------|
A#-----12--10--12~~~---12--10----------12--10--12------12--10--12-|
F#-----------------------------12~~~------------------------------|
C#----------------------------------------------------------------|
G#----------------------------------------------------------------|
C#----------------------------------------------------------------|

Guitar 1 & 3
D#---------------------------------------------------------------|
A#---------------------------------------------------------------|
F#---------------------------------------------------------------|
C#-5---5---5---5---5---5---5---5---0---0---0---0---0---0---1---1-|
G#-5---5---5---5---5---5---5---5---0---0---0---0---0---0---1---1-|
C#-5---5---5---5---5---5---5---5---0---0---0---0---0---0---1---1-|

Guitar 2
D#-------------10----------------------------------------------------------|
A#-----12--10------10--10-10-13--13-12-10--10--------------------10--10-10-|
F#-12------------------------------------------12--11--11--12-12-----------|
C#-------------------------------------------------------------------------|
G#-------------------------------------------------------------------------|
C#-------------------------------------------------------------------------|

Guitar 1 & 3
D#-----------------------------------------------------------------------|
A#-----------------------------------------------------------------------|
F#---------------------------------------------5~~~~~~~~~~~~~~~~~~~~~~~~-|
C#-2---2---2---2---0---0---0---0---5---5-------5~~~~~~~~~~~~~~~~~~~~~~~~-|
G#-2---2---2---2---0---0---0---0---5---5-------3~~~~~~~~~~~~~~~~~~~~~~~~-|
C#-2---2---2---2---0---0---0---0---5---5---------------------------------|

Guitar 2
D#-----------------------------------------------------------------------|
A#-----12--10--12~~~---12--10----------10--12--13~~~~~~~~~~~~~~~~~~~~~~~-|
F#-----------------------------12~~~-------------------------------------|
C#-----------------------------------------------------------------------|
G#-----------------------------------------------------------------------|
C#-----------------------------------------------------------------------|

Bridge

Guitar 1
D#------------------------------------------------|
A#------------------------------------------------|
F#------------------------------------------------|
C#------------------------------------------------|
G#------------------------------------------------|
C#-5--5--5--5--5--5--5--5--0--0--0--0--0--0--1--1-|
pm .  .  .  .  .  .  .  .  .  .  .  .  .  .  .  .

Guitar 2
D#-------------------------------------------------|
A#-12-12-12-12-12-12-12-12-10-10-10-10-10-10-10-10-|
F#-12-12-12-12-12-12-12-12-12-12-12-12-11-11-11-11-|
C#-------------------------------------------------|
G#-------------------------------------------------|
C#-------------------------------------------------|

Guitar 1
D#------------------------------------------------|
A#------------------------------------------------|
F#-------------------------5--5--5--5--5--5--5--5-|
C#-------------------------5--5--5--5--5--5--5--5-|
G#-------------------------3--3--3--3--3--3--3--3-|
C#-2--2--2--2--2--2--2--2-------------------------|
pm .  .  .  .  .  .  .  .     .  .  .  .  .


Guitar 2
D#-12-12-12-12-12-12-12-12-------------------------|
A#-12-12-12-12-12-12-12-12-13-13-13-13-13-13-13-13-|
F#-------------------------12-12-12-12-12-12-12-12-|
C#-------------------------------------------------|
G#-------------------------------------------------|
C#-------------------------------------------------|

Guitar 1
D#------------------------------------------------|
A#------------------------------------------------|
F#------------------------------------------------|
C#-5--5--5--5--5--5--5--5--0--0--0--0--0--0--1--1-|
G#-5--5--5--5--5--5--5--5--0--0--0--0--0--0--1--1-|
C#-5--5--5--5--5--5--5--5--0--0--0--0--0--0--1--1-|


Guitar 2
D#-------------------------------------------------|
A#----------------------------------------13-13-13-|
F#-12-12-12-12-12-14-14-14-14-14-14-14-14----------|
C#-------------------------------------------------|
G#-------------------------------------------------|
C#-------------------------------------------------|

Guitar 3
D#-------------------------------------------------|
A#-12-12-12-12-12-12-12-12-10-10-10-10-10-10-10-10-|
F#-12-12-12-12-12-12-12-12-12-12-12-12-11-11-11-11-|
C#-------------------------------------------------|
G#-------------------------------------------------|
C#-------------------------------------------------|

Guitar 1
D#------------------------------------------------|
A#------------------------------------------------|
F#-------------------------5--5--5--5--5--5--5--5-|
C#-2--2--2--2--2--2--2--2--5--5--5--5--5--5--5--5-|
G#-2--2--2--2--2--2--2--2--3--3--3--3--3--3--3--3-|
C#-2--2--2--2--2--2--2--2-------------------------|

Guitar 2
D#-------------------------------------------------|
A#-------------------------13-13-13-13-13-12-12-12-|
F#-12-12-12-12-12-14-14-14-------------------------|
C#-------------------------------------------------|
G#-------------------------------------------------|
C#-------------------------------------------------|

Guitar 3
D#-12-12-12-12-12-12-12-12-------------------------|
A#-12-12-12-12-12-12-12-12-13-13-13-13-13-13-13-13-|
F#-------------------------12-12-12-12-12-12-12-12-|
C#-------------------------------------------------|
G#-------------------------------------------------|
C#-------------------------------------------------|

Guitar 1
D#------------------------------------------------|
A#------------------------------------------------|
F#------------------------------------------------|
C#-5--5--5--5--5--5--5--5--0--0--0--0--0--0--1--1-|
G#-5--5--5--5--5--5--5--5--0--0--0--0--0--0--1--1-|
C#-5--5--5--5--5--5--5--5--0--0--0--0--0--0--1--1-|


Guitar 2
D#-------------------------------------------------|
A#----------------------------------------13-13-13-|
F#-12-12-12-12-12-14-14-14-14-14-14-14-14----------|
C#-------------------------------------------------|
G#-------------------------------------------------|
C#-------------------------------------------------|

Guitar 3
D#-------------------------------------------------|
A#-12-12-12-12-12-12-12-12-10-10-10-10-10-10-10-10-|
F#-12-12-12-12-12-12-12-12-12-12-12-12-11-11-11-11-|
C#-------------------------------------------------|
G#-------------------------------------------------|
C#-------------------------------------------------|

Guitar 1
D#------------------------------------------------|
A#------------------------------------------------|
F#-------------------------5--5--5--5--5--5--5--5-|
C#-2--2--2--2--2--2--2--2--5--5--5--5--5--5--5--5-|
G#-2--2--2--2--2--2--2--2--3--3--3--3--3--3--3--3-|
C#-2--2--2--2--2--2--2--2-------------------------|

Guitar 2
D#-------------------------------------------------|
A#-------------------------13-13-13-13-13-12-12-12-|
F#-12-12-12-12-12-14-14-14-------------------------|
C#-------------------------------------------------|
G#-------------------------------------------------|
C#-------------------------------------------------|

Guitar 3
D#-12-12-12-12-12-12-12-12-------------------------|
A#-12-12-12-12-12-12-12-12-13-13-13-13-13-13-13-13-|
F#-------------------------12-12-12-12-12-12-12-12-|
C#-------------------------------------------------|
G#-------------------------------------------------|
C#-------------------------------------------------|

Outro

Guitar 1 & 3
D#-------------------------------------------------------------|
A#-------------------------------------------------------------|
F#-------------------------------------------5~~~~~~~~~~~~~~~~-|
C#-2--2--x--x--x--x--0--0--x--x---x--5--5----5~~~~~~~~~~~~~~~~-|
G#-2--2--x--x--x--x--0--0--x--x---x--5--5----3~~~~~~~~~~~~~~~~-|
C#-2--2--x--x--x--x--0--0--x--x---x--5--5----------------------|

Guitar 2
D#-------------------------------------------------------------|
A#-8--8--------------10-10-----------7--8--7-------------------|
F#-x--x--------------x--x------------x--x--x--5~~~~~~~~~~~~~~~-|
C#-5--5--x--x--x--x--7--7--x--x---x--4--5--4--5~~~~~~~~~~~~~~~-|
G#-------x--x--x--x--------x--x---x-----------3~~~~~~~~~~~~~~~-|
C#-------x--x--x--x--------x--x---x----------------------------|

Tab Legend
h  -  hammer-on
p  -  pull-off
/  -  slide up
\  -  slide down
ps/-  pickslide up
ps\-  pickslide down
~  -  let ring
pm.-  palm mute
b  -  bend
r  -  return from bend
*  -  harmonic
x  -  dead note

That is the end of it! I hope this helped, and be sure to check out my cover if 
you are having problems with the tab. Thanks, oh and one last thing... ROCK OUT!!!!

            
            
Suggest correction
Creating personal tab
Creating personal tab
You can edit any tab online and save it as your Personal.

You can edit, replace or remove any tab part or add personal notes – all changes will be seen only by you.

Personal tabs can be accessed anytime from any device, even offline.
Learn more »
comments
print report bad tab
7 comments total. Showing first comments.
+2 reply
Chickenboot 2,354 Apr 26, 2010 02:09 PM

Great tab, very accurate.

0 reply
Ralen777 10 May 04, 2010 11:25 PM

Finally someone has the correct tab with the lead part in the verse! Perfect tab dude!

God bless and thanks a bunch!

+2 reply
Legend Jedicsc 92 May 10, 2010 05:17 AM

The rhythm is good, but Ben plays different versions of the chords. Like, way different though. These are still right, just not the way Ben plays it.

guest
You may want to rate the tab now too:
select rating
Wanna post a correction for this tab? Suggest correction