Oops, an error
Loading. Please wait.

Had Enough tab

version 1
version 1

Whole song

Interactive

27,303 views 9 this week
3 commentsread comments
1 2 3 4 5
x 4
add to favorites
×
Save as Personal and add changes to this tab that will be seen only by you. Learn more ›
×
You can save this tab as Personal to edit and correct it or add notes. All changes will be seen only by you. Learn more »
launch autoscroll
font size
0
reset
how to read this tab
guitar tuner
edit
Autoscroll
slow
fast
+/-
esc
set tempo
stop
Author
Artist : Breaking Benjamin
Song   : Had Enough
Album  : Phobia
Tuning : (low to high) Bb F Bb Eb G C

NOTE : I didn't tab the 2nd guitar, incase you're wondering where it is.
       This is the correct tuning, strumming patterns might be a little off.

Intro (x2) Play each part 2 times                    
C |----------------------------|----------------------------------------|
G |----------------------------|----------------------------12-12-12-12-|  
Eb|----------------------------|-----------------------------x--x--x--x-| 
Bb|-2--2-2-0-2--2-2-0--5-4-4-0-|-10--10-10-12-10--10-10-10---9--9--9--9-| 
F |-2--2-2-0-2--2-2-0--5-4-4-0-|-10--10-10-12-10--10-10-10--------------|
Bb|-2--2-2-0-2--2-2-0--5-4-4-0-|-10--10-10-12-10--10-10-10--------------|

Verse
C |--------------------------------------------------|
G |--------------------------------------------------|
Eb|-9~----9-12----------------9~----9-12-------------|
Bb|-9~----9-12-10~----10-9----9~----9-12-10~----10-9-| 
F |-7~----7-10-10~----10-9----7~----7-10-10~----10-9-|
Bb|------------10~----10-9---------------10~----10-9-|

Chorus (x2)
C |------------------------------------------------------------------------|
G |------------------------------------------------------------------------|
Eb|------------------------------------------------------------------------|
Bb|-2--2-2-2~---9--9-9-9~---10-10-x-x-10--10-10-10---5--5-5---9--9-9---x-0-| 
F |-2--2-2-2~---9--9-9-9~---10-10-x-x-10--10-10-10---5--5-5---9--9-9---x-0-|
Bb|-2--2-2-2~---9--9-9-9~---10-10-x-x-10--10-10-10---5--5-5---9--9-9---x-0-|

REPEAT INTRO, VERSE, AND CHORUS

Bridge (x5)
C |------------------------|
G |------------------------|
Eb|------------------------|
Bb|-2----9----10----5----4-| 
F |-2----9----10----5----5-|
Bb|-2----9----10----5----4-|

REPEAT CHORUS, AND INTRO.

            
            
Suggest correction
Creating personal tab
Creating personal tab
You can edit any tab online and save it as your Personal.

You can edit, replace or remove any tab part or add personal notes – all changes will be seen only by you.

Personal tabs can be accessed anytime from any device, even offline.
Learn more »
comments
print report bad tab
3 comments total.
0 reply
Metal_Rich 555 Aug 08, 2006 09:25 AM

Sounds good to me, nice one.

+1 reply
CrosseGod18 464 Aug 23, 2006 02:58 PM

That little solo that Aaron plays over the Bridge goes like this I think.

C |-19--15----------15--15/17--19--15----------15----|
G |---------17--17---------------------17--17--------|
Eb|--------------------------------------------------|
Bb|--------------------------------------------------|
F |--------------------------------------------------|
Bb|--------------------------------------------------|

C |-15/17--19--15------15--15/17--19-19-19-17-17-17--|
G |----------------17--------------------------------|
Eb|--------------------------------------------------|
Bb|--------------------------------------------------|
F |--------------------------------------------------|
Bb|--------------------------------------------------|

I'm pretty sure thats how it goes, sounds right to me. 5 from me anyway.

0 reply
CrosseGod18 464 Aug 23, 2006 06:13 PM

My tab comes out very soon. It should be 100%. You did really good too. This part will be in my tab.

guest
You may want to rate the tab now too:
select rating
Wanna post a correction for this tab? Suggest correction