Oops, an error
Loading. Please wait.

Here We Are tab

version 2
version 2

Whole song

Interactive

4,621 views 3 this week
2 commentsread comments
1 2 3 4 5
x 5
add to favorites
×
Save as Personal and add changes to this tab that will be seen only by you. Learn more ›
×
You can save this tab as Personal to edit and correct it or add notes. All changes will be seen only by you. Learn more »
launch autoscroll
font size
0
reset
how to read this tab
guitar tuner
edit
Autoscroll
slow
fast
+/-
esc
set tempo
stop
Here We Are
Breaking Benjamin
Track Number 9 of Phobia (2006)
Tabbed By: Mariano Arnaiz
Anything to : marianoarnaiz@hotmail.com
Tunning:  1/2 step down, Drop Db (DbAbDbGbBbeb)

I dont like to play if Breaking Benjamin´s standar tunning for this album, so, i figur 
out in Eb, sounds very good i hope you
like it

Intro
eb||---4------------------|---4-------------0---||
Bb||--(5)----7------------|--(5)-----7------2---||
Gb||---6-----6---------2--|---6------6------2---||
Db||---6-----4-------2----|---6------4------2---||
Ab||---4-----4---2-4------|---4------4------0---||
Db||---------4------------|----------4----------||

Verse
   |:                                        :|x3
eb||---4--------------------------2-----------|---4-------------0---||
Bb||--(5)--------------7----------2-----------|--(5)-----7------2---||
Gb||---6---6-6-6-6-6---6--6-6-6---2--------2--|---6------4------2---||
Db||---6---6-6-6-6-6---4--4-4-4---2------2----|---6------4------2---||
Ab||---4---4-4-4-4-4---4--4-4-4---0--2-4------|---4------4------0---||
Db||-------------------4----------------------|----------4----------||

Chorus
eb||--x-x--x-x---------------------------|--x----------------|-----------------------||
Bb||--x-x--x-x--5-5-5-5-5-5--------------|--x----------------|--7-7-7-7--------------||
Gb||--x-x--x-x--4-4-4-4-4-4---4-4-4-4-4--|--x--5./6-6-6-6-6--|--6-6-6-6--2--------2--||
Db||--x-x--x-x--2-2-2-2-2-2---4-4-4-4-4--|--x--5./6-6-6-6-6--|--4-4-4-4--2------2----||
Ab||--x-x--x-x--2-2-2-2-2-2---2-2-2-2-2--|--x--3./4-4-4-4-4--|--4-4-4-4--0--2-4------||
Db||--x-x--x-x--2-2-2-2-2-2--------------|--x----------------|--4-4-4-4--------------||

Pre-verse
eb||-----------------------|-------------------||
Bb||-----------------------|-------------------||
Gb||-----------------------|----------------2--||
Db||-----------------------|------------4---2--||
Ab||--11--x.11--9-11-9-11--|--x.11--9---4---0--||
Db||--11--x.11--9-11-9-11--|--x.11--9---4------||

Verse
   |:                                        :|x3
eb||---4--------------------------2-----------|---4-------------0----||
Bb||--(5)--------------7----------2-----------|--(5)-----7--7-7-2-2--||
Gb||---6---6-6-6-6-6---6--6-6-6---2--------2--|---6--6-6-4------2----||
Db||---6---6-6-6-6-6---4--4-4-4---2------2----|---6------4------2----||
Ab||---4---4-4-4-4-4---4--4-4-4---0--2-4------|---4------4------0----||
Db||-------------------4----------------------|----------4-----------||

Chorus
  |:                                                                                 :|x2
eb||--x-x--x-x---------------------------|--x----------------|-----------------------||
Bb||--x-x--x-x--5-5-5-5-5-5--------------|--x----------------|--7-7-7-7--------------||
Gb||--x-x--x-x--4-4-4-4-4-4---4-4-4-4-4--|--x--5./6-6-6-6-6--|--6-6-6-6--2--------2--||
Db||--x-x--x-x--2-2-2-2-2-2---4-4-4-4-4--|--x--5./6-6-6-6-6--|--4-4-4-4--2------2----||
Ab||--x-x--x-x--2-2-2-2-2-2---2-2-2-2-2--|--x--3./4-4-4-4-4--|--4-4-4-4--0--2-4------||
Db||--x-x--x-x--2-2-2-2-2-2--------------|--x----------------|--4-4-4-4--------------||

Bridge
                               |:                                                        :|x2
eb||---------------------------|---------------------------------|------------------------|-------------||
Bb||--9--9-9-9-9---3--3-3-3-3--|---------------------------------|------------------------|-------------||
Gb||--8--8-8-8-8---2--2-2-2-2--|--2--2-2-2-2-2-------------------|------------------------|--6--6-6-6---||
Db||--6--6-6-6-6---0--0-0-0-0--|--2---2-2-2-2-2---4--4-4-4-4-4---|--2--2-2-2---0--0-0-0---|--6---6-6-6--||
Ab||--6--6-6-6-6---0--0-0-0-0--|--0---------------4---4-4-4-4-4--|--2---2-2-2--0---0-0-0--|--4----------||
Db||--6--6-6-6-6---0--0-0-0-0--|------------------4--------------|--2----------0----------|-------------||

Guitar Solo
eb||------------------------------------------------------|-------------------------------------------------||
Bb||------------------------------------------------------|-------------/18---------------------------------||
Gb||--------9-11--11.b(13).r11-11.b(13).r11-11.b(13).r11--|--11-9-----9------11.b(13).r11-11.b(13).r11.b13--||
Db||--9h11------------------------------------------------|--------11---------------------------------------||
Ab||------------------------------------------------------|-------------------------------------------------||
Db||------------------------------------------------------|-------------------------------------------------||

eb||--------------------------------9-11-12--|--11.b(13).r11-11.b(13).r11-11.b(13).r11--||
Bb||---------------------------9-12----------|------------------------------------------||
Gb||-----9.b(11).r9-9.b(11).r9---------------|------------------------------------------||
Db||--11-------------------------------------|------------------------------------------||
Ab||-----------------------------------------|------------------------------------------||
Db||-----------------------------------------|------------------------------------------||

eb||--9-7-9-9-/11-11-11--/12-12-/14-16--16-16--16----16\14-14--||
Bb||---------------------------------------------14------------||
Gb||-----------------------------------------------------------||
Db||-----------------------------------------------------------||
Ab||-----------------------------------------------------------||
Db||-----------------------------------------------------------||

eb||--12\9-9.b(11)-9.b(11).r9-9.b(11).r9-9.b(11).r9-------9-----------------------------7h9-7h9-11-12--||
Bb||------------------------------------------------7h9-9---7-9.b(11).r9-9.b(11).r9-7h9----------------||
Gb||---------------------------------------------------------------------------------------------------||
Db||---------------------------------------------------------------------------------------------------||
Ab||---------------------------------------------------------------------------------------------------||
Db||---------------------------------------------------------------------------------------------------||

Chorus
   |:                                                                                :|x4
eb||--x-x--x-x---------------------------|--x----------------|-----------------------||
Bb||--x-x--x-x--5-5-5-5-5-5--------------|--x----------------|--7-7-7-7--------------||
Gb||--x-x--x-x--4-4-4-4-4-4---4-4-4-4-4--|--x--5./6-6-6-6-6--|--6-6-6-6--2--------2--||
Db||--x-x--x-x--2-2-2-2-2-2---4-4-4-4-4--|--x--5./6-6-6-6-6--|--4-4-4-4--2------2----||
Ab||--x-x--x-x--2-2-2-2-2-2---2-2-2-2-2--|--x--3./4-4-4-4-4--|--4-4-4-4--0--2-4------||
Db||--x-x--x-x--2-2-2-2-2-2--------------|--x----------------|--4-4-4-4--------------||

Outro (the "just take a breath and softly say good bye")
eb||----------------||
Bb||--7---------5---||
Gb||--6----4----4---||
Db||--4----4----2---||
Ab||--4----2----2---||
Db||--4---------2---||

            
            
Suggest correction
Creating personal tab
Creating personal tab
You can edit any tab online and save it as your Personal.

You can edit, replace or remove any tab part or add personal notes – all changes will be seen only by you.

Personal tabs can be accessed anytime from any device, even offline.
Learn more »
comments
print report bad tab
2 comments total.
0 reply
=(Cody=) 148 Dec 31, 2009 10:46 AM

obviously, some of the chords are an octave up from what they should be, but you did that intentionally, so i'd have to say this tab is worth at least a good 4*'s. the only thing missing is the second guitar part that plays in the intro and verses.
awesome job, despite that. keep it up, mate =)

0 reply
marianoarnaiz 1,521 Jan 06, 2010 01:09 PM

hey dude tnx is nice to jnow some people that care form the time taken by others

guest
You may want to rate the tab now too:
select rating
Wanna post a correction for this tab? Suggest correction