Oops, an error
Loading. Please wait.

Hopeless Acoustic tab

version 4
version 4

Whole song

Interactive

805 views 6 this week
1 commentread comment
1 2 3 4 5
x 4
add to favorites
×
Save as Personal and add changes to this tab that will be seen only by you. Learn more ›
×
You can save this tab as Personal to edit and correct it or add notes. All changes will be seen only by you. Learn more »
launch autoscroll
font size
0
reset
how to read this tab
guitar tuner
edit
Autoscroll
slow
fast
+/-
esc
set tempo
stop
Acoustic version is taken from here
https://www.youtube.com/watch?v=pZoCUHwCaGk

Dm: [007765]
Bb: [88x766]
F:  [x87565]
Am: [x07555]
C:  [x35553]

Intro (Ben):
Dm Bb F Am

Intro (Aaron):
D|--------------------------|------------------------|
A|--------6--5----6--6------|------6--5----6--6------|
F|---7----------------------|----------------------5-|
C|------------------------8-|-8----------------------|
G|--------------------------|------------------------|
C|--------------------------|------------------------|

D|--------------------------|------------------------|-----|
A|--------6--5----6--6--6/8-|-5----6--5----6--5------|-----|
F|---5----------------------|----------------------5-|---7-|
C|--------------------------|------------------------|-----|
G|--------------------------|------------------------|-----|
C|--------------------------|------------------------|-----|

Dm             Bb
  Here I lie forever
                  F
  Sorrow still remains
                      Am 
  Will the water pull me down
                   Dm  
  And wash it all away?
                   Bb
  Come and take me over
                  F
  Welcome to the game
                        Am
  Will the current drag me down
                 Bb
  And carry me away?
                 C             Bb C 
  Suddenly the light begins to fa-ade... 

Dm
HOPELESS! 
             F
I'm falling down
FILTHY! 
             Bb
I can't wake up
               C
I can not hold on
               Dm
I will not let go
WORTHLESS! 
           F
It's over now
GUILTY! 
               Bb
There's no way out
               C
I can not hold on
               Dm
I will not let go

Again intro:
Dm Bb F Am

D|--------------------------|------------------------|
A|--------6--5----6--6------|------6--5----6--6------|
F|---7----------------------|----------------------5-|
C|------------------------8-|-8----------------------|
G|--------------------------|------------------------|
C|--------------------------|------------------------|

D|--------------------------|------------------------|-----|
A|--------6--5----6--6--6/8-|-5----6--5----6--5------|-----|
F|---5----------------------|----------------------5-|---7-|
C|--------------------------|------------------------|-----|
G|--------------------------|------------------------|-----|
C|--------------------------|------------------------|-----|

Dm              Bb
  Silent I go under
              F
  I am not afraid
                    Am 
  I can see the daylight shine
                    Dm
  And slowly drift away
                    Bb
  Safe to say it's over
                  F
  Sink into the grave
                          Am
  There's nothing left inside
                  Bb
  But I am wide awake
                  C            Bb C
  I can hear the devil call my na-ame... 

Dm
HOPELESS! 
             F
I'm falling down
FILTHY! 
             Bb
I can't wake up
               C
I can not hold on
               Dm
I will not let go
WORTHLESS! 
           F
It's over now
GUILTY! 
               Bb
There's no way out
               C
I can not hold on
               Dm
I will not let go

Bridge (on both guitars)

D|---------------------------------------------------------------------|
A|---------------------------------------------------------------------|
F|---------------------------------------------------------------------|
C|---------------------------------------------------------------------|
G|------3---------3--------------------3---------3---------------------|
C|--0-0---0---0-0---0--0--0-0-7----0-0---0---0-0---3-0-3-5-6-5-1-3-----|

D|---------------------------------------------------------------------|
A|---------------------------------------------------------------------|
F|---------------------------------------------------------------------|
C|---------------------------------------------------------------------|
G|------3---------3--------------------3---------3---------------------|
C|--0-0---0---0-0---0--0--0-0-7----0-0---0---0-0---3-0-3-5-6-5-1-3-----|

D|--------------------------------------------|
A|--4--4--4--4--4--4--4--4------3--3--3--3----|
F|--3--3--3--3--3--3--3--3------3--3--3--3----|
C|--1--1--1--1--1--1--1--1------1--1--1--1----|
G|--1--1--3--3--3--3--3--3------1--1--1--1----|
C|--1--1--1--1--1--1--1--1--------------------|

C C C C C C C C C C C C

Dm
HOPELESS! 
             F
I'm falling down
FILTHY! 
             Bb
I can't wake up
               C
I can not hold on
               Dm
I will not let go
WORTHLESS! 
           F
It's over now
GUILTY! 
               Bb
There's no way out
               C
I can not hold on
               Dm
I will not let go

Outro seems to be played like intro

            
            
Suggest correction
Creating personal tab
Creating personal tab
You can edit any tab online and save it as your Personal.

You can edit, replace or remove any tab part or add personal notes – all changes will be seen only by you.

Personal tabs can be accessed anytime from any device, even offline.
Learn more »
comments
print report bad tab
1 comment total.
+3 reply
KentHawkings 40 Jul 18, 2016 06:38 AM, edited on August 4 2016, 12:14 pm

Thanks so much for this, the acoustic version is beautiful. As a baritone I find that this suits my voice with standard or half a step down tuning and playing the open variants of the chords.

guest
You may want to rate the tab now too:
select rating
Wanna post a correction for this tab? Suggest correction