Oops, an error
Loading. Please wait.

Lights Out tab

version 1
version 1

Whole song

Interactive

10,614 views 1 this week
3 commentsread comments
1 2 3 4 5
2 more votes to show rating
add to favorites
×
Save as Personal and add changes to this tab that will be seen only by you. Learn more ›
×
You can save this tab as Personal to edit and correct it or add notes. All changes will be seen only by you. Learn more »
launch autoscroll
font size
0
reset
how to read this tab
guitar tuner
edit
Autoscroll
slow
fast
+/-
esc
set tempo
stop
Difficulty
Drop Bb

Havent gotten the whole thing yet so feel free to add on. I know the intro and verse are 
but the strumming on the pre chorus and chorus is kinda tricky so you have to listen closely.

Intro                                                            Play Twice
|--------------------------------------------------------------------------|
|--------------------------------------------------------------------------|
|--------------------------------------------------------------------------|
|--------------------------------------------------------------------------|
|-------------5----0h36------------5----5h63-------------------------------|
|0-1-0--0-1p0--40h4-----0-1-0--01p0-40h4-----------------------------------|

Verse (Dont know the rhythm part yet)                            Play Twice
|--------------------------------------------------------------------------|
|--------------------------------------------------------------------------|
|----14~-15-12-------------------------------------------------------------|
|12~-------------1--0-00-00-0-00-1-----------------------------------------|
|----------------1--0-00-00-0-00-1-----------------------------------------|
|----------------1--0-00-00-0-00-1-----------------------------------------|

Pre Chorus (Listen for strumming)                                Play Twice

"Now you wanna take me down..as if I even care..I am the monster in your..
|--------------------------------------------------------------------------|
|--------------------------------------------------------------------------|
|--------------------------------------------------------------------------|
|3333333333333333333777555555555555557777744444444444444440000000000222----|
|--------------------------------------------------------------------------|
|--------------------------------------------------------------------------|

      "And now your life.........is broken"                      Play Once
|--------------------------------------------------------------------------|
|--------------------------------------------------------------------------|
|--------------------------------------------------------------------------|
|33333333333333333333333555555555555555555---------------------------------|
|--------------------------------------------------------------------------|
|--------------------------------------------------------------------------|

Chorus
      "After the lights go out on you, after your worthless life is through
|--------------------------------------------------------------------------|
|--------------------------------------------------------------------------|
|--------------------------------------------------------------------------|
|777777777777777777777777777777555444444444444444447777777775555588877777--|
|--------------------------------------------------------------------------|
|--------------------------------------------------------------------------|

"I will remember how you scream, I cant..I cant afford to care"
|--------------------------------------------------------------------------|
|--------------------------------------------------------------------------|
|--------------------------------------------------------------------------|
|77777777777777777777555544444444 7-7-7-7--5-5-5-5-------------------------|
|--------------------------------------------------------------------------|
|--------------------------------------------------------------------------|
Suggest correction
Creating personal tab
Creating personal tab
You can edit any tab online and save it as your Personal.

You can edit, replace or remove any tab part or add personal notes – all changes will be seen only by you.

Personal tabs can be accessed anytime from any device, even offline.
Learn more »
Give kudos to tab author, rate the tab!
1 2 3 4 5
comments
print report bad tab
3 comments total.
+2 reply
IbanezRG2EX1 81 Oct 01, 2009 11:55 AM

How is the chorus all notes???? it should be chords...

0 reply
U B the band 3,023 Oct 15, 2009 09:48 AM

Here's the correct way to play the intro.

Intro: Guitars 1 & 2 (Distorted)
|-------------------------------------------------------------------|
|-------------------------------------------------------------------|
|-------------------------------------------------------------------|
|-------------------------------------------------------------------|
|------------------5-------3-5-6--------------------5-------5-6-3---|
|--0--1--0--0-4-0----3-0-7----------0--1--0--0-4-0----3-0-7---------|

0 reply
igo147 287 Oct 17, 2009 06:43 AM

Actually the intro is almost correct, with one minor change:
|-------------------------------------------------------------------|
|-------------------------------------------------------------------|
|-------------------------------------------------------------------|
|-------------------------------------------------------------------|
|------------------5-------0-3-6--------------------5-------5-6-3---|
|--0--1--0--1-0-1----4-0-4----------0--1--0--1-0-1----4-0-4---------|

guest
Wanna post a correction for this tab? Suggest correction