Oops, an error
Loading. Please wait.

Natural Life bass

version 1
version 1

Whole song

Interactive

2,640 views 1 this week
5 commentsread comments
1 2 3 4 5
x 6
add to favorites
×
Save as Personal and add changes to this tab that will be seen only by you. Learn more ›
×
You can save this tab as Personal to edit and correct it or add notes. All changes will be seen only by you. Learn more »
launch autoscroll
font size
0
reset
guitar tuner
edit
Autoscroll
slow
fast
+/-
esc
set tempo
stop
Author
4 String version

h=hammer-on
p=pull-off

Intro

Gb|--7---9---10---7---12---9---7---10---7---7---9---5-|
Db|0---0---0----0---0----0---0---0----0---0---0---0---|
Ab|---------------------------------------------------|
Db|---------------------------------------------------|

Breakdown

Gb|-------------|
Db|-------------|
Ab|-------------|
Db|0-0-0-0-0-0--|

Verse

Gb|-------------|
Db|-------------|
Ab|------1------|
Db|0-3-0---0-3--|

Chorus

Gb|---------------------------------------------------|
Db|---------------------------------------------------|
Ab|--------------------8-8-8--------------------------|
Db|3-3-0-3-0-7-7-0-7-0-------10-10-10-8-8-8-10-10-10--|

Breakdown to interlude

Gb|-------------------------|
Db|-------------------------|
Ab|------8-8-8-7-7-7-3-3-3--|
Db|8-8-8--------------------|

Interlude

Gb|--------------------------------------------------------------|
Db|--------------------------------------------------------------|
Ab|------------------------------------------8-8-8-7-7-7-3-3-3---|
Db|10h12-12-12-10-10-0-10h12p0-10h12p0-8-8-8---------------------|

            
            
Suggest correction
Creating personal tab
Creating personal tab
You can edit any tab online and save it as your Personal.

You can edit, replace or remove any tab part or add personal notes – all changes will be seen only by you.

Personal tabs can be accessed anytime from any device, even offline.
Learn more »
comments
print report bad tab
5 comments total. Showing first comments.
0 reply
IbanezUser24 10 Feb 26, 2003 07:00 PM

IbanezUser
I tabbed it upside down, sorry.

0 reply
AlkalineStone 10 Jun 15, 2004 08:00 PM

Dont ever ***ing tab upside down dumb ass

0 reply
Skater901 121 Sep 04, 2006 04:57 AM

Isn't there like anyway you can fix it, say re-post it?

guest
You may want to rate the tab now too:
select rating
Wanna post a correction for this tab? Suggest correction