Oops, an error
Loading. Please wait.

Never Again tab

7,540 views 63 this week
no commentswrite comment
1 2 3 4 5
x 7
add to favorites
×
Save as Personal and add changes to this tab that will be seen only by you. Learn more ›
×
You can save this tab as Personal to edit and correct it or add notes. All changes will be seen only by you. Learn more »
launch autoscroll
font size
0
reset
how to read this tab
guitar tuner
edit
Autoscroll
slow
fast
+/-
esc
set tempo
stop
Tabbed by: Soarstaraptor
Breaking Benjamin - Never Again 'Tab'
New song off their album "Dark Before Dawn". Here ya go!
FINAL UPDATE 4/4/2017: Lead Guitar riff changes
Tuning: Drop Bb

[INTRO]
[Guitar 2 Lead](0:00 - 0:14)
C |----------------------------------------------------|
G |--15------13------11------11-------13-------11------|
D#|------14------14------14------14-------14-------14--|
A#|----------------------------------------------------| x3
F |----------------------------------------------------|
A#|----------------------------------------------------|

[Guitar 1 Rhythm](0:05 - 0:14)Distortion
C |--------------------------------------|
G |--------------------------------------|
D#|--------------------------------------| gradually increase
A#|------------------------0-------------| volume on last barre chord
F |------------------------0-------------|
A#|------------------------0-------------|

[Guitar 1 Rhythm]:(0:15) DISTORTION
C |-------------------------------------------------------------|
G |-------------------------------------------------------------|
D#|-------------------------------------------------------------|
A#|-------------------------------------------------------------|
F |-0--------------0--------------0-------------0------------6--|
A#|-0---8p7-0-3p2--0---8p7p0-5p7--0--8p7-0-3p2--0--8p7-3p0-8----|

[Guitar 2 Lead](0:15)
C |----------------------------------------------------|
G |--15------13------11------11-------13-------11------|
D#|------14------14------14------14-------14-------14--|
A#|----------------------------------------------------|
F |----------------------------------------------------|
A#|----------------------------------------------------|

[Guitar 1 Rhythm](0:20)
C |---------------------------------------------------------|
G |---------------------------------------------------------|
D#|---------------------------------------------5-------3---|
A#|---------------------------------------------5---3---3---|
F |-0--------------0--------------0-------------3---3---1---|
A#|-0---8p7-0-3p2--0---8p7p0-5p7--0--8p7-0-3p0------3-------|

[Guitar 2 Lead](0:20)
C |----------------------------------------------------|
G |--15------13------11------11----------------11------|
D#|------14------14------14---------------14-------14--|
A#|--------------------------------15------------------| 
F |----------------------------------------------------|
A#|----------------------------------------------------|

[VERSE:]
[Guitar 1, 2 or Both](0:25 - 0:45)
C |-------------------------------------------------------------|
G |-------------------------------------------------------------|
D#|-------------------------------------------------------------|
A#|------------------------5+------------------------------5+---|
F |-------------------------------------------------------------|
A#|-0--x-0--x-0--0--x-0-x-------0--0--x-0--x-0--0--x--0--x------|
    *    *    *  *    *         *  *    *    *  *     *
                       Carry me under..
                       
C |--------------------------------------------------|
G |--------------------------------------------------|
D#|-10--10--10--10---10------------------------------|
A#|-8---8---8---8----8----10---10---10---10---10-----| x2
F |-8---8---8---8----8----10---10---10---10---10-----|
A#|-8---8---8---8----8----10---10---10---10---10-----|
           Show me what's left!

C |--------------------------------------------------------------|
G |--------------------------------------------------------------|
D#|--------------------------------------------------------------|
A#|------------------------5+------------------------------5+----|
F |--------------------------------------------------------------|
A#|-0--x-0--x-0--0--x-0-x-------0--0--x-0--x-0-0-0--x--0--x------|
    *    *    *  *    *         *  *    *    * * *     *
                      Beautiful anger..

[CHORUS: PLAY TWICE]
[Guitar 1 Rhythm](0:46 - 1:05)
C |---------------------------------------------------------------------------------------|
G |---------------------------------------------------------------------------------------|
D#|-----------------------5---5---5---5---5---------------------------3---3---3---3---3---|
A#|-3---3---3---3---3-----5---5---5---5---5-----0---0---0---0---0-----3---3---3---3---3---|
F |-3---3---3---3---3-----3---3---3---3---3-----0---0---0---0---0-----1---1---1---1---1---|
A#|-3---3---3---3---3---------------------------0---0---0---0---0-------------------------|
           Take the color..                             I bleed for you..


C |---------------------------------------------------------------------------------------|
G |---------------------------------------------------------------------------------------|
D#|-----------------------5---5---5---5---5---------------------------3---3---3---3-------| slide
A#|-3---3---3---3---3-----5---5---5---5---5-----0---0---0---0---0-----3---3---3---3-------| from
F |-3---3---3---3---3-----3---3---3---3---3-----0---0---0---0---0-----1---1---1---1-------| 12th
A#|-3---3---3---3---3---------------------------0---0---0---0---0---------------------\---|
                                                       

[Guitar 2 Lead](0:46 - 1:05)
C |--------------------------------------------------------------------17--15--17--20v-17--|
G |--18--17--18--20--18-17-18--17--18--20--18-17-18--17--18--20--18-17---------------------|
D#|----------------------------------------------------------------------------------------|
A#|----------------------------------------------------------------------------------------|
F |----------------------------------------------------------------------------------------|
A#|----------------------------------------------------------------------------------------|

[POST-CHORUS]
[Guitar 1 Rhythm](1:06)
C |---------------------------------------------------------|
G |---------------------------------------------------------|
D#|---------------------------------------------5-------3---|
A#|---------------------------------------------5---3---3---|
F |-0--------------0--------------0-------------3---3---1---|
A#|-0---8p7-0-3p2--0---8p7p0-5p7--0--8p7-0-3p0------3-------|

[Guitar 2 Lead](1:06)
C |----------------------------------------------------|
G |--15------13------11------11----------------11------|
D#|------14------14------14---------------14-------14--|
A#|--------------------------------15------------------| 
F |----------------------------------------------------|
A#|----------------------------------------------------|

[VERSE 2]
[Guitar 1, 2 or Both](1:12 - 1:31)
C |--------------------------------------------------------------|
G |--------------------------------------------------------------|
D#|--------------------------------------------------------------|
A#|------------------------5+-------------------------------5+---|
F |--------------------------------------------------------------|
A#|-0--x-0--x-0--0--x-0-x-------0--0--x-0--x-0--0--x--0--x-------|
    *    *    *  *    *         *  *    *    *  *     *
                       Empty and perfect, shattered and worthless..
                       Dragging me further, forget to remember..

C |--------------------------------------------------|
G |--------------------------------------------------|
D#|-10--10--10--10---10------------------------------|
A#|-8---8---8---8----8----10---10---10---10----x-----|
F |-8---8---8---8----8----10---10---10---10----x-----|
A#|-8---8---8---8----8----10---10---10---10----x-----|
           Show me what's left..

[CHORUS 2]
[Guitar 1 Rhythm](1:32 - 1:52)
C |---------------------------------------------------------------------------------------|
G |---------------------------------------------------------------------------------------|
D#|-----------------------5---5---5---5---5---------------------------3---3---3---3---3---|
A#|-3---3---3---3---3-----5---5---5---5---5-----0---0---0---0---0-----3---3---3---3---3---| x2
F |-3---3---3---3---3-----3---3---3---3---3-----0---0---0---0---0-----1---1---1---1---1---|
A#|-3---3---3---3---3---------------------------0---0---0---0---0-------------------------|
           Take the cold from your eyes,               I bleed for you, I bleed for you!
           Bring the broken back to life,              We'll make it through..

[Guitar 2 Lead](1:32 - 1:52)
C |--------------------------------------------------------------------17--15--17--20v-17--|
G |--18--17--18--20--18-17-18--17--18--20--18-17-18--17--18--20--18-17---------------------|
D#|----------------------------------------------------------------------------------------|
A#|----------------------------------------------------------------------------------------|
F |----------------------------------------------------------------------------------------|
A#|----------------------------------------------------------------------------------------|

[Guitar 1 Rhythm](1:53 - 2:12)
C |---------------------------------------------------------------------------------------|
G |---------------------------------------------------------------------------------------|
D#|-----------------------3---3---3---3---3---------------------------5---5---5---5---5---|
A#|-0---0---0---0---0-----3---3---3---3---3-----3---3---3---3---3-----5---5---5---5---5---|
F |-0---0---0---0---0-----1---1---1---1---1-----3---3---3---3---3-----3---3---3---3---3---|
A#|-0---0---0---0---0---------------------------3---3---3---3---3-------------------------|
             Never again!         Never again!           Time will not take the life from me!

C |---------------------------------------------------------------------------------------|
G |---------------------------------------------------------------------------------------|
D#|-----------------------3---3---3---3---3---------------------------5---5---5---5-------| slide 
A#|-0---0---0---0---0-----3---3---3---3---3-----3---3---3---3---3-----5---5---5---5-------| from
F |-0---0---0---0---0-----1---1---1---1---1-----3---3---3---3---3-----3---3---3---3-------| 12th
A#|-0---0---0---0---0---------------------------3---3---3---3---3---------------------\---|

[Guitar 2 Lead](1:53 - 2:12)
C |--------------------------------------------------------------------17--15--17--20v-17--|
G |--18--17--18--20--18-17-18--17--18--20--18-17-18--17--18--20--18-17---------------------|
D#|----------------------------------------------------------------------------------------|
A#|----------------------------------------------------------------------------------------| 
F |----------------------------------------------------------------------------------------|
A#|----------------------------------------------------------------------------------------|

[BRIDGE]
[Guitar 1 Rhythm](2:13)
C |----------------------------------------------------------------------------------|
G |----------------------------------------------------------------------------------|
D#|----------------------------------------------------------------------------------|
A#|----------------------------------------------------------------------------------|
F |------------------------------------------------------------------------------0---|
A#|-0--0--x-0--1p0--0--7p6p5-0-0--1p0--0--x--0--0--x-0--1p0--0--7p6p5-0-0-0-3-5------|
    *  *    *       *        * *       *     *  *            *        * *

[Guitar 2 Lead](2:13)
C |----------------------------13--------12---------------|
G |--15--------13----------------------------------13-----|
D#|-------14-------14---12-14-------14--------14-------14-|
A#|-------------------------------------------------------|
F |-------------------------------------------------------|
A#|-------------------------------------------------------|

[Guitar 1 Rhythm](2:18)
C |-------------------------------------------|
G |-------------------------------------------|
D#|-3-------3-------3---5-------5-------5-----|
A#|-3-------3-------3---5-------5-------5-----|
F |-1-------1-------1---3-------3-------3-----|
A#|-------------------------------------------|
           And after this world..

[Guitar 2 Lead](2:18)
C |-------------------------------------------|
G |--------------------------12b--------------|
D#|--12b--------------------------------------|
A#|-------------------------------------------|
F |-------------------------------------------|
A#|-------------------------------------------|

[Guitar 1 Rhythm](2:23)
C |----------------------------------------------------------------------------------|
G |----------------------------------------------------------------------------------|
D#|----------------------------------------------------------------------------------|
A#|----------------------------------------------------------------------------------|
F |------------------------------------------------------------------------------0---|
A#|-0--0--x-0--1p0--0--7p6p5-0-0--1p0--0--x--0--0--x-0--1p0--0--7p6p5-0-0-0-3-5------|
    *  *    *       *        * *       *     *  *            *        * *
                      Sober and silent..

[Guitar 2 Lead](2:23)
C |----------------------------13--------12---------------|
G |--15--------13----------------------------------13-----|
D#|-------14-------14---12-14-------14--------14-------14-|
A#|-------------------------------------------------------|
F |-------------------------------------------------------|
A#|-------------------------------------------------------|

[Guitar 1 Rhythm](2:28)
C |-------------------------------------------|
G |-------------------------------------------|
D#|-3-------3-------3---5-------5-------5-----|
A#|-3-------3-------3---5-------5-------5-----|
F |-1-------1-------1---3-------3-------3-----|
A#|-------------------------------------------|
           Hopeless I fight..

[Guitar 2 Lead](2:28)
C |-------------------------------------------|
G |--------------------------12b--------------|
D#|--12b--------------------------------------|
A#|-------------------------------------------|
F |-------------------------------------------|
A#|-------------------------------------------|

[Guitar 1 Rhythm](2:34)
C |----------------------------------------------------------------------------------|
G |----------------------------------------------------------------------------------|
D#|----------------------------------------------------------------------------------|
A#|----------------------------------------------------------------------------------|
F |------------------------------------------------------------------------------0---|
A#|-0--0--x-0--1p0--0--7p6p5-0-0--1p0--0--x--0--0--x-0--1p0--0--7p6p5-0-0-0-3-5------|
    *  *    *       *        * *       *     *  *            *        * *
                      Never surrender..

[Guitar 2 Lead](2:34)
C |----------------------------13--------12---------------|
G |--15--------13----------------------------------13-----|
D#|-------14-------14---12-14-------14--------14-------14-|
A#|-------------------------------------------------------|
F |-------------------------------------------------------|
A#|-------------------------------------------------------|

[Guitar 1 Rhythm](2:39)
C |-------------------------------------x-----|
G |-------------------------------------x-----|
D#|-3-------3-------3---5-------5-------x-----|
A#|-3-------3-------3---5-------5-------x-----|
F |-1-------1-------1---3-------3-------x-----|
A#|-------------------------------------x-----|
           So save a space..

[Guitar 2 Lead](2:39)
C |-------------------------------------x-----|
G |---------------------12b-------------x-----|
D#|--12b--------------------------------x-----|
A#|-------------------------------------x-----|
F |-------------------------------------x-----|
A#|-------------------------------------x-----|

[CHORUS 3]
[Guitar 1 Rhythm](2:44 - 3:03)
C |---------------------------------------------------------------------------------------|
G |---------------------------------------------------------------------------------------|
D#|-----------------------5---5---5---5---5---------------------------3---3---3---3---3---|
A#|-3---3---3---3---3-----5---5---5---5---5-----0---0---0---0---0-----3---3---3---3---3---| x2
F |-3---3---3---3---3-----3---3---3---3---3-----0---0---0---0---0-----1---1---1---1---1---|
A#|-3---3---3---3---3---------------------------0---0---0---0---0-------------------------|
           Take the cold from your eyes..              I bleed for you..
           Bring the broken..                          We'll make it through..

[Guitar 2 Lead](2:44 - 3:03)
C |--------------------------------------------------------------------17--15--17--20v-17--|
G |--18--17--18--20--18-17-18--17--18--20--18-17-18--17--18--20--18-17---------------------|
D#|----------------------------------------------------------------------------------------|
A#|----------------------------------------------------------------------------------------| x2
F |----------------------------------------------------------------------------------------|
A#|----------------------------------------------------------------------------------------|

[Guitar 1 Rhythm](3:04 - 3:24)
C |----------------------------------------------------------------------------------------|
G |----------------------------------------------------------------------------------------|
D#|-----------------------3---3---3---3---3---------------------------5---5---5---5--------| slide
A#|-0---0---0---0---0-----3---3---3---3---3-----3---3---3---3---3-----5---5---5---5--------| from
F |-0---0---0---0---0-----1---1---1---1---1-----3---3---3---3---3-----3---3---3---3--------| 12th
A#|-0---0---0---0---0---------------------------3---3---3---3---3---------------------\----|
             Never again!         Never again!           Time will..

[Guitar 2 Lead](3:04 - 3:24)
C |--------------------------------------------------------------------17--15--17--20v-17--|
G |--18--17--18--20--18-17-18--17--18--20--18-17-18--17--18--20--18-17---------------------|
D#|----------------------------------------------------------------------------------------|
A#|----------------------------------------------------------------------------------------| x2
F |----------------------------------------------------------------------------------------|
A#|----------------------------------------------------------------------------------------|

[OUTRO]
[Guitar 1 Rhythm](3:25)
C |---------------------------------------------------------|
G |---------------------------------------------------------|
D#|---------------------------------------------5-------3---|
A#|---------------------------------------------5---3---3---|
F |-0--------------0--------------0-------------3---3---1---|
A#|-0---8p7-0-3p2--0---8p7p0-5p7--0--8p7-0-3p0------3-------|

[Guitar 2 Lead](3:25)
C |----------------------------------------------------|
G |--15------13------11------11-------13-------11------|
D#|------14------14------14------14-------14-------14--|
A#|----------------------------------------------------|
F |----------------------------------------------------|
A#|----------------------------------------------------|



[Guitar 1 Rhythm](3:30)
C |-----------|
G |-----------|
D#|-----------| barre chord
A#|-0---------| fade out
F |-0---------|
A#|-0---------|

 Guitar 2 Lead: (3:30)
C |----------------------------------------------------|
G |--15------13------11------11----------------11------|
D#|------14------14------14---------------14-------14--| play during last
A#|--------------------------------15------------------| barre chord
F |----------------------------------------------------|
A#|----------------------------------------------------|


************************************

| p  Pull-off
| x  Dead note
| h  Hammer-on
| b  Bend

************************************

            
            
Suggest correction
Creating personal tab
Creating personal tab
You can edit any tab online and save it as your Personal.

You can edit, replace or remove any tab part or add personal notes – all changes will be seen only by you.

Personal tabs can be accessed anytime from any device, even offline.
Learn more »
comments
print report bad tab
guest
You may want to rate the tab now too:
select rating
Wanna post a correction for this tab? Suggest correction