Oops, an error
Loading. Please wait.

Next To Nothing tab

version 1
version 1

Whole song

Interactive

9,091 views 1 this week
1 commentread comment
1 2 3 4 5
x 8
add to favorites
×
Save as Personal and add changes to this tab that will be seen only by you. Learn more ›
×
You can save this tab as Personal to edit and correct it or add notes. All changes will be seen only by you. Learn more »
launch autoscroll
font size
0
reset
how to read this tab
guitar tuner
edit
Autoscroll
slow
fast
+/-
esc
set tempo
stop
Author
-------------------------------------------------------------------------------
Breaking Benjamin-next to nothing
-------------------------------------------------------------------------------

Tabbed by:Reeder21      
Email:rock1612@hotmail.com      

Tuning: Db, Ab, Db, Gb, Bb, Eb


(4x)  (verse)
Eb|-------------------------
Bb|-5-----------------------
Gb|-6---4-------------------
Db|-6---4----6--6-----------
Ab|-4---2----4--4-----------
Db|----------4--4-----------

(8x)  (pre-chorus)  (muted)
Eb|-------------------------
Bb|-------------------------
Gb|-------------------------
Db|--7-7-7-7----------------
Ab|--7-7-7-7----------------
Db|--7-7-7-7----------------

       (chorus) 
Eb|---------------------------
Bb|---------------------------
Gb|---------------------------
Db|-2-2-2---7-7---11-11--9-9--
Ab|-2-2-2---7-7---11-11--9-9--
Db|-2-2-2---7-7---11-11--9-9--

This is the basic song , I don’t have the bridge yet. I am working on it,
 
I love this band they are so awesome. If you need me contact me at rock1612@hotmail.com
Suggest correction
Creating personal tab
Creating personal tab
You can edit any tab online and save it as your Personal.

You can edit, replace or remove any tab part or add personal notes – all changes will be seen only by you.

Personal tabs can be accessed anytime from any device, even offline.
Learn more »
comments
print report bad tab
1 comment total.
0 reply
Reeder21 70 Aug 07, 2003 08:00 PM

Pre chorus

Eb----------------------------------
Bb----------------------------------
Gb----------------------------------
Db-7-7-7-7--9-9-9-9-----------------
Ab-7-7-7-7--9-9-9-9------------------
Db-7-7-7-7--9-9-9-9------------------

guest
You may want to rate the tab now too:
select rating
Wanna post a correction for this tab? Suggest correction