Oops, an error
Loading. Please wait.

Next To Nothing Tab

version 2
version 2

Whole song

Interactive

21,565 views 15 this week
8 commentsread comments
1 2 3 4 5
x 11
add to favorites
launch autoscroll
font size
0
reset
how to read this tab
guitar tuner
×
Best way to learn
"Next To Nothing"
Autoscroll
slow
fast
+/-
esc
set tempo
stop
Artist: Breaking Benjamin
Song: Next to Nothing
Album: Saturate (2002 Hollywood Records)
Tabbed by: DarkStar11589
http://www.shallowbay.com

Notation:
  h - hammer on 
  p - pull off 
  b - bend string up
  r - release bend
  / - slide up
  \ - slide down
  p.m. - palm muting

Tuning (low to high):  Db, Ab, Db, Gb, Bb, Eb


Intro (clean tone)
Eb|-0--------------0--------------|------------------------------|
Bb|-5--------------5--------------|------------------------------|
Gb|-4--------------4--------------|------------------------------|
Dd|-2--------------2--------------|-6--------------6--------6--0-|
Ad|-4--------------0--------------|-4--------------4--------4--0-|
Dd|-------------------------------|-4--------------4--------4----|

Eb|-0--------------0--------------|------------------------------|
Bb|-5--------------5--------------|------------------------------|
Gb|-4--------------4--------------|------------------------------|
Dd|-2--------------2--------------|-6--------------6--------6--0-|
Ad|-4--------------0--------------|-4--------------4--------4--0-|
Dd|-------------------------------|-4--------------4--------4----|

       "Beneath this..."
Eb|-0--------------0--------------|------------------------------|
Bb|-5--------------5--------------|------------------------------|
Gb|-4--------------4--------------|------------------------------|
Dd|-2--------------2--------------|-6--------------6--------6--0-|
Ad|-4--------------0--------------|-4--------------4--------4--0-|
Dd|-------------------------------|-4--------------4--------4----|

Eb|-0--------------0-------------|--------0----------------------|
Bb|-5--------------5-------------|------------0------------------|
Gb|-4--------------4-------------|-------------------------------|
Dd|-2--------------2-------------|-6---------------------6-------|
Ad|-4--------------0-------------|-4-------------------------4---|
Dd|------------------------------|-4-----------------------------|

Eb|-0--------------0--------------|------------------------------|
Bb|-5--------------5--------------|------------------------------|
Gb|-4--------------4--------------|------------------------------|
Dd|-2--------------2--------------|-6--------------6--------6--0-|
Ad|-4--------------0--------------|-4--------------4--------4--0-|
Dd|-------------------------------|-4--------------4--------4----|

Eb|-0--------------0-------------|-------------------------------|
Bb|-5--------------5-------------|-------------------------------|
Gb|-4--------------4-------------|-------------------------------|
Dd|-2--------------2-------------|-6-------------(6)-------------|
Ad|-4--------------0-------------|-4-------------(4)-------------|
Dd|------------------------------|-4-------------(4)-------------|

Verse (00:27)  "You cut me down..."
Eb|-0--------------0--------------|------------------------------|
Bb|-5--------------5--------------|------------------------------|
Gb|-4--------------4--------------|------------------------------|
Dd|-2--------------2--------------|-6--------------6--------6--0-|
Ad|-4--------------0--------------|-4--------------4--------4--0-|
Dd|-------------------------------|-4--------------4--------4----|

Eb|-0--------------0--------------|------------------------------|
Bb|-5--------------5--------------|------------------------------|
Gb|-4--------------4--------------|------------------------------|
Dd|-2--------------2--------------|-6--------------6--------6--0-|
Ad|-4--------------0--------------|-4--------------4--------4--0-|
Dd|-------------------------------|-4--------------4--------4----|

Eb|-0--------------0--------------|------------------------------|
Bb|-5--------------5--------------|------------------------------|
Gb|-4--------------4--------------|------------------------------|
Dd|-2--------------2--------------|-6--------------6--------6--0-|
Ad|-4--------------0--------------|-4--------------4--------4--0-|
Dd|-------------------------------|-4--------------4--------4----|

Eb|-0--------------0--------------|------------------------------|
Bb|-5--------------5--------------|------------------------------|
Gb|-4--------------4--------------|------------------------------|
Dd|-2--------------2--------------|-6---------6--6--6--6--6------|
Ad|-4--------------0--------------|-4---------4--4--4--4--4--x-x-|
Dd|-------------------------------|-4---------4--4--4--4--4--x-x-|

Prechorus (00:45) "Come and take..."
     Guitar 1  (w/ distortion)
Eb|-------------------------------|-------------------------------|
Bb|-------------------------------|-------------------------------|
Gb|-2---2---2---2---2---2---2---2-|-4---4---4---4---4---4---4---4-|
Dd|-2---2---2---2---2---2---2---2-|-4---4---4---4---4---4---4---4-|
Ad|-0---0---0---0---0---0---0---0-|-2---2---2---2---2---2---2---2-|
Dd|-------------------------------|-------------------------------|
    pm  pm  pm  pm  pm  pm  pm  pm  pm  pm  pm  pm  pm  pm  pm  pm
Eb|-------------------------------|-------------------------------|
Bb|-------------------------------|-------------------------------|
Gb|-2---2---2---2---2---2---2---2-|-4---4---4---4---4---4---4---4-|
Dd|-2---2---2---2---2---2---2---2-|-4---4---4---4---4---4---4---4-|
Ad|-0---0---0---0---0---0---0---0-|-2---2---2---2---2---2---2---2-|
Dd|-------------------------------|-------------------------------|
    pm  pm  pm  pm  pm  pm  pm  pm  pm  pm  pm  pm  pm

    Guitar 2 (clean tone)
Eb|-0------------0----------------|-2-----------2-----------------|
Bb|--------------0----------------|-----2--------------2-------2--|
Gb|-----4--------4------4-------4-|---------4--------------4------|
Dd|----------2--------------2-----|-------------------------------|
Ad|-------------------------------|-------------------------------|
Dd|-------------------------------|-------------------------------|

Eb|-0------------0----------------|-2-----------2--------------2--|
Bb|--------------0----------------|-----2--------------2-------2--|
Gb|-----4--------4------4-------4-|---------4--------------4---4--|
Dd|----------2--------------2-----|-------------------------------|
Ad|-------------------------------|-------------------------------|
Dd|-------------------------------|-------------------------------|

Chorus (00:53)   "Cause I know its..."
Eb|-------------------------------|-------------------------------|
Bb|-------------------------------|-------------------------------|
Gb|-------------------------------|-6-----6--6-----4-----4--4--4--|
Dd|-2-----2--2-----7-----7--7--7--|-6-----6--6-----4-----4--4--4--|
Ad|-2-----2--2-----7-----7--7--7--|-4-----4--4-----2-----2--2--2--|
Dd|-2-----2--2-----7-----7--7--7--|-------------------------------|

Eb|-------------------------------|-------------------------------|
Bb|-------------------------------|-------------------------------|
Gb|-------------------------------|-6-----6--6-----4-----4--4--4--|
Dd|-2-----2--2-----7-----7--7--7--|-6-----6--6-----4-----4--4--4--|
Ad|-2-----2--2-----7-----7--7--7--|-4-----4--4-----2-----2--2--2--|
Dd|-2-----2--2-----7-----7--7--7--|-------------------------------|

Eb|-------------------------------|-------------------------------|
Bb|-------------------------------|-------------------------------|
Gb|-------------------------------|-6-----6--6-----4-----4--4--4--|
Dd|-2-----2--2-----7-----7--7--7--|-6-----6--6-----4-----4--4--4--|
Ad|-2-----2--2-----7-----7--7--7--|-4-----4--4-----2-----2--2--2--|
Dd|-2-----2--2-----7-----7--7--7--|-------------------------------|

Eb|-------------------------------|-------------------------------|
Bb|-------------------------------|-------------------------------|
Gb|-------------------------------|-6-----6--6-----4-----4--4--4--|
Dd|-2-----2--2-----7-----7--7--7--|-6-----6--6-----4-----4--4--4--|
Ad|-2-----2--2-----7-----7--7--7--|-4-----4--4-----2-----2--2--2--|
Dd|-2-----2--2-----7-----7--7--7--|-------------------------------|

Eb|-------------------------------|-------------------------------|
Bb|-------------------------------|-------------------------------|
Gb|-2---2---2---2---2---2---2---2-|-------------------------------|
Dd|-2---2---2---2---2---2---2---2-|-4---4---4---4---4---4---4---4-|
Ad|-0---0---0---0---0---0---0---0-|-4---4---4---4---4---4---4---4-|
Dd|-------------------------------|-4---4---4---4---4---4---4---4-|

Back to verse

Guitar 2 (01:17) *play over verse rhythm after first chorus
    *w/ distortion
Eb|-0--------------(0)------------|----------------(0)------------|
Bb|-5--------------(5)------------|----------------(5)------------|
Gb|-4--------------(4)------------|----------------(4)------------|
Dd|-2--------------(2)------------|----------------(2)------------|
Ad|-4--------------(4)------------|----------------(4)------------|
Dd|-------------------------------|-------------------------------|

Eb|-(0)---------------------------|-------------------------------|
Bb|-(5)\2----------(2)------------|-(2)---------------------------|
Gb|-(4)---------------------------|-------------------------------|
Dd|-(2)---------------------------|-------------------------------|
Ad|-(4)---------------------------|-------------------------------|
Dd|-------------------------------|-------------------------------|
                                           *feedback

Chorus II (01:52)
Eb|-------------------------------|-------------------------------|
Bb|-------------------------------|-------------------------------|
Gb|-------------------------------|-6-----6--6-----4-----4--4--4--|
Dd|-2-----2--2-----7-----7--7--7--|-6-----6--6-----4-----4--4--4--|
Ad|-2-----2--2-----7-----7--7--7--|-4-----4--4-----2-----2--2--2--|
Dd|-2-----2--2-----7-----7--7--7--|-------------------------------|

Eb|-------------------------------|-------------------------------|
Bb|-------------------------------|-------------------------------|
Gb|-------------------------------|-6-----6--6-----4-----4--4--4--|
Dd|-2-----2--2-----7-----7--7--7--|-6-----6--6-----4-----4--4--4--|
Ad|-2-----2--2-----7-----7--7--7--|-4-----4--4-----2-----2--2--2--|
Dd|-2-----2--2-----7-----7--7--7--|-------------------------------|

Eb|-------------------------------|-------------------------------|
Bb|-------------------------------|-------------------------------|
Gb|-------------------------------|-6-----6--6-----4-----4--4--4--|
Dd|-2-----2--2-----7-----7--7--7--|-6-----6--6-----4-----4--4--4--|
Ad|-2-----2--2-----7-----7--7--7--|-4-----4--4-----2-----2--2--2--|
Dd|-2-----2--2-----7-----7--7--7--|-------------------------------|

Eb|-------------------------------|-------------------------------|
Bb|-------------------------------|-------------------------------|
Gb|-------------------------------|-6-----6--6-----4-----4--4--4--|
Dd|-2-----2--2-----7-----7--7--7--|-6-----6--6-----4-----4--4--4--|
Ad|-2-----2--2-----7-----7--7--7--|-4-----4--4-----2-----2--2--2--|
Dd|-2-----2--2-----7-----7--7--7--|-------------------------------|

Eb|-------------------------------|-------------------------------|
Bb|-------------------------------|-------------------------------|
Gb|-------------------------------|-------------------------------|
Dd|-7------7------7-----7/9-------|-7------7------7------9------6-|
Ad|-7------7------7-----7/9-------|-7------7------7------9------6-|
Dd|-7------7------7-----7/9-------|-7------7------7------9------6-|

Eb|-------------------------------|-------------------------------|
Bb|-------------------------------|-------------------------------|
Gb|-------------------------------|-------------------------------|
Dd|-7------7------7-----7/9-------|-7------7------7------9------6-|
Ad|-7------7------7-----7/9-------|-7------7------7------9------6-|
Dd|-7------7------7-----7/9-------|-7------7------7------9------6-|

    Guitar 1 (02:19)
Eb|-------------------------------|-------------------------------|
Bb|-------------------------------|-------------------------------|
Gb|-------------------------------|-------------------------------|
Dd|-7------7------7-----7/9-------|-7------7------7------9------6-|
Ad|-7------7------7-----7/9-------|-7------7------7------9------6-|
Dd|-7------7------7-----7/9-------|-7------7------7------9------6-|

Eb|-------------------------------|-------------------------------|
Bb|-------------------------------|-------------------------------|
Gb|-------------------------------|-------------------------------|
Dd|-----7-----7-----7-x-x-9-------|-7------7------7------9------6-|
Ad|-----7-----7-----7-x-x-9-------|-7------7------7------9------6-|
Dd|-----7-----7-----7-x-x-9-------|-7------7------7------9------6-|

    Guitar 2 (02:19)
Eb|-------------------------------|-------------------------------|
Bb|-5------5------5-----5-7-------|-5------5------5------7------4-|
Gb|-4------4------4-----4-6-------|-4------4------4------6------3-|
Dd|-7------7------7-----7-9-------|-7------7------7------9------6-|
Ad|-0------0------0-----0-0-------|-0------0------0------0--------|
Dd|-------------------------------|-------------------------------|

Eb|-------------------------------|-------------------------------|
Bb|-----5-----5-----5-----7-------|-5-------5-------5-----7-----4-|
Gb|-----4-----4-----4-----6-------|-4-------4-------4-----6-----3-|
Dd|-----7-----7-----7-x-x-9-------|-7-------7-------7-----9-----6-|
Ad|-----0-----0-----0-x-x-0-------|-0-------0-------0-----0-------|
Dd|-------------------------------|-------------------------------|

Solo (02:28)
Eb|-------------------------------|-------------------------------|
Bb|-5---5--5--5/7------7----7-----|-/10-----9---9-------------4---|
Gb|-------------------------------|------------------4------------|
Dd|-------------------------------|-------------------------------|
Ad|-------------------------------|-------------------------------|
Dd|-------------------------------|-------------------------------|
    *play 4x

Chorus III (02:46)
Eb|-------------------------------|-------------------------------|
Bb|-------------------------------|-------------------------------|
Gb|-------------------------------|-6-----6--6-----4-----4--4--4--|
Dd|-2-----2--2-----7-----7--7--7--|-6-----6--6-----4-----4--4--4--|
Ad|-2-----2--2-----7-----7--7--7--|-4-----4--4-----2-----2--2--2--|
Dd|-2-----2--2-----7-----7--7--7--|-------------------------------|

Eb|-------------------------------|-------------------------------|
Bb|-------------------------------|-------------------------------|
Gb|-------------------------------|-6-----6--6-----4-----4--4--4--|
Dd|-2-----2--2-----7-----7--7--7--|-6-----6--6-----4-----4--4--4--|
Ad|-2-----2--2-----7-----7--7--7--|-4-----4--4-----2-----2--2--2--|
Dd|-2-----2--2-----7-----7--7--7--|-------------------------------|

Eb|-------------------------------|-------------------------------|
Bb|-------------------------------|-------------------------------|
Gb|-------------------------------|-6-----6--6-----4-----4--4--4--|
Dd|-2-----2--2-----7-----7--7--7--|-6-----6--6-----4-----4--4--4--|
Ad|-2-----2--2-----7-----7--7--7--|-4-----4--4-----2-----2--2--2--|
Dd|-2-----2--2-----7-----7--7--7--|-------------------------------|

Eb|-------------------------------|-------------------------------|
Bb|-------------------------------|-------------------------------|
Gb|-------------------------------|-6-----6--6-----4-----4--4--4--|
Dd|-2-----2--2-----7-----7--7--7--|-6-----6--6-----4-----4--4--4--|
Ad|-2-----2--2-----7-----7--7--7--|-4-----4--4-----2-----2--2--2--|
Dd|-2-----2--2-----7-----7--7--7--|-------------------------------|

Eb|-------------------------------|-------------------------------|
Bb|-------------------------------|-------------------------------|
Gb|-------------------------------|-------------------------------|
Dd|-7---7---7---7---7---7---7---7-|-9---9---9---9---9---9---9---9-|
Ad|-7---7---7---7---7---7---7---7-|-9---9---9---9---9---9---9---9-|
Dd|-7---7---7---7---7---7---7---7-|-9---9---9---9---9---9---9---9-|

Eb|-------------------------------|-------------------------------|
Bb|-------------------------------|-------------------------------|
Gb|-------------------------------|-------------------------------|
Dd|-7---7---7---7---7---7---7---7-|-4---4---4---4---4---4---4---4-|
Ad|-7---7---7---7---7---7---7---7-|-4---4---4---4---4---4---4---4-|
Dd|-7---7---7---7---7---7---7---7-|-4---4---4---4---4---4---4---4-|

Outro (03:13)
    Guitar 1
Eb|-------------------------------|-------------------------------|
Bb|-------------------------------|-------------------------------|
Gb|-6-----------------------------|-------------------------------|
Dd|-6------------7----------------|-4-----------------------------|
Ad|-4------------7----------------|-4-----------------------------|
Dd|--------------7----------------|-4-----------------------------|

Eb|-------------------------------|-------------------------------|
Bb|-------------------------------|-------------------------------|
Gb|-6-----------------------------|-------------------------------|
Dd|-6------------7----------------|-4-----------------------------|
Ad|-4------------7----------------|-4-----------------------------|
Dd|--------------7----------------|-4-----------------------------|

Eb|-------------------------------|-------------------------------|
Bb|-------------------------------|-------------------------------|
Gb|-6-----------------------------|-------------------------------|
Dd|-6------------7----------------|-4------------------------x--x-|
Ad|-4------------7----------------|-4------------------------x--x-|
Dd|--------------7----------------|-4------------------------x--x-|

Eb|-------------------------------|-------------------------------|
Bb|-------------------------------|-------------------------------|
Gb|---6---------------------------|-------------------------------|
Dd|-x-6----------7----------------|-4-----------------------------|
Ad|-x-4----------7----------------|-4-----------------------------|
Dd|-x------------7----------------|-4-----------------------------|

    Guitar 2
Eb|-------------------------------|-------------------------------|
Bb|-6h7-7/9-----------7------7----|-------------------------------|
Gb|-------------------------------|-4---6-------------------------|
Dd|-------------------------------|-------------------------------|
Ad|-------------------------------|-------------------------------|
Dd|-------------------------------|-------------------------------|

Eb|-------------------------------|-------------------------------|
Bb|-6h7-7/9-----------7----6----7-|--7/9--------------------------|
Gb|-------------------------------|-------------------------------|
Dd|-------------------------------|-------------------------------|
Ad|-------------------------------|-------------------------------|
Dd|-------------------------------|-------------------------------|

Eb|-------------------------------|-------------------------------|
Bb|-6h7-7/9-----------7------7----|--------------------------x--x-|
Gb|-------------------------------|-4---6--------------------x--x-|
Dd|-------------------------------|--------------------------x--x-|
Ad|-------------------------------|-------------------------------|
Dd|-------------------------------|-------------------------------|

Eb|-------------------------------|-------------------------------|
Bb|-x---7/9-----------7----6------|---/9--------------------------|
Gb|-x-----------------------------|-------------------------------|
Dd|-x-----------------------------|-------------------------------|
Ad|-------------------------------|-------------------------------|
Dd|-------------------------------|-------------------------------|
Suggest correction
comments
print report bad tab
8 comments total. Showing first comments.
0 reply
Godsmackkid1113 15 Aug 07, 2006 03:48 PM

This sounds perfect when I play it, nice job.

0 reply
guitarboy34 51 Mar 26, 2007 07:14 AM

awesome job man!thank you

0 reply
audioslave41413 30 May 09, 2007 09:37 PM

i havnt really check the tab out yet but do u think it might be acoustic instead of clean

guest
You may want to rate the tab now too:
select rating
Wanna post a correction for this tab? Suggest correction