Oops, an error
Loading. Please wait.

Rain Tab

version 2
version 2

Interactive

Video

51,751 views 15 this week
11 commentsread comments
1 2 3 4 5
excellent!
x 16
add to favorites
launch autoscroll
font size
0
reset
how to read this tab
guitar tuner
Autoscroll
slow
fast
+/-
esc
set tempo
stop
Help us to improve Ultimate-Guitar.com Take our survey!
×
Contributor
U B the band 5,209
Breaking Benjamin
Rain (AOL Sessions)
Tabbed by U B the band
Tuning C G C F A D

Legend
h-hammer on
x-scratch (or don't play)

Aaron doesn't start playing until the first chorus.

Intro (Ben)
D|--------------------------------------------|
A|--------------------------------------------|
F|--------------------------------------------|
C|--4--4-4-4--4-4-4-4-4--4--4-4-4--7-7-7-7-7--|
G|--0--0-0-0--5-5-5-5-5--0--0-0-0--5-5-5-5-5--|
C|--0--0-0-0--5-5-5-5-5--0--0-0-0--5-5-5-5-5--|

D|-------------------------------------------------------------|
A|-------------------------------------------------------------|
F|-------------------------------------9--9--9--9--------------|
C|--4--4-4-4--12--12--12--12--12---11--11-11-11-11--7-7-7-7-7--|
G|--0--0-0-0--9---9---9---9---9----7---7--7--7--7---5-5-5-5-5--|
C|--0--0-0-0--9---9---9---9---9----7---7--7--7--7---5-5-5-5-5--|

Verse 1 (Ben)
D|--------------------------------------------|
A|--------------------------------------------|
F|--------------------------------------------|
C|--4--4-4-4--4-4-4-4-4--4--4-4-4--7-7-7-7-7--|
G|--0--0-0-0--5-5-5-5-5--0--0-0-0--5-5-5-5-5--|
C|--0--0-0-0--5-5-5-5-5--0--0-0-0--5-5-5-5-5--|

D|-------------------------------------------------------------|
A|-------------------------------------------------------------|
F|-------------------------------------9--9--9--9--------------|
C|--4--4-4-4--12--12--12--12--12---11--11-11-11-11--7-7-7-7-7--|
G|--0--0-0-0--9---9---9---9---9----7---7--7--7--7---5-5-5-5-5--|
C|--0--0-0-0--9---9---9---9---9----7---7--7--7--7---5-5-5-5-5--|x2

Chorus (Ben)
D|------------------------------------------------------|
A|--3--3-3-3--3-3-3-3-3--3--3-3-3--3-3-3-3-3--3--3-3-3--|
F|--2--2-2-2--0-0-0-0-0--2--2-2-2--0-0-0-0-0--2--2-2-2--|
C|--0--0-0-0--4-4-4-4-4--0--0-0-0--4-4-4-4-4--0--0-0-0--|
G|--0--0-0-0--5-5-5-5-5--0--0-0-0--5-5-5-5-5--0--0-0-0--|
C|--0--0-0-0--5-5-5-5-5--0--0-0-0--5-5-5-5-5--0--0-0-0--|

Chorus (Aaron)
D|------------------------------------------------------|
A|--3--3-3-3--3-3-3-3-3--3--3-3-3--3-3-3-3-3--3--3-3-3--|
F|--2--2-2-2--0-0-0-0-0--2--2-2-2--0-0-0-0-0--2--2-2-2--|
C|--0--0-0-0--4-4-4-4-4--0--0-0-0--4-4-4-4-4--0--0-0-0--|
G|--0--0-0-0--5-5-5-5-5--0--0-0-0--5-5-5-5-5--0--0-0-0--|
C|--0--0-0-0--5-5-5-5-5--0--0-0-0--5-5-5-5-5--0--0-0-0--|

Chorus Cont. (Ben)
D|------------------------------------------|
A|------------------------------------------|
F|--4--4--4--4--4---7--7--7--7--7--7--7--7--|
C|--2--2--2--2--2---5--5--5--5--5--5--5--5--|
G|--2--2--2--2--2---5--5--5--5--5--5--5--5--|
C|--2--2--2--2--2---5--5--5--5--5--5--5--5--|

Chorus Cont. (Aaron)
D|------------------------------------------|
A|--0--0--0--0--0---3--3--3--3--3--3--3--3--|
F|--x--x--x--x--x---0--0--0--0--0--0--0--0--|
C|--2--2--2--2--2---x--x--x--x--x--x--x--x--|
G|--2--2--2--2--2---5--5--5--5--5--5--5--5--|
C|--2--2--2--2--2---5--5--5--5--5--5--5--5--|

Verse 2 (Ben)
D|--------------------------------------------|
A|--------------------------------------------|
F|--------------------------------------------|
C|--4--4-4-4--4-4-4-4-4--4--4-4-4--7-7-7-7-7--|
G|--0--0-0-0--5-5-5-5-5--0--0-0-0--5-5-5-5-5--|
C|--0--0-0-0--5-5-5-5-5--0--0-0-0--5-5-5-5-5--|

Verse 2 (Aaron)
D|--10-------------------10-------------------|
A|--------------------------------------------|
F|--------------------------------------------|
C|--------------------------------------------|
G|--------------------------------------------|
C|--------------------------------------------|

Verse 2 Cont. (Ben)
D|-----------------------------------------------------------------|
A|-----------------------------------------------------------------|
F|-----------------------------------------9--9--9--9--------------|
C|------4--4-4-4--12--12--12--12--12---11--11-11-11-11--7-7-7-7-7--|
G|------0--0-0-0--9---9---9---9---9----7---7--7--7--7---5-5-5-5-5--|
C|------0--0-0-0--9---9---9---9---9----7---7--7--7--7---5-5-5-5-5--|

Verse 2 Cont. (Aaron)
D|--12-10--------12--------14----------15----14----12----10--12----|
A|-----------------------------------------------------------------|
F|-----------------------------------------------------------------|
C|-----------------------------------------------------------------|
G|-----------------------------------------------------------------|
C|-----------------------------------------------------------------|

Verse 2 Cont. (Ben)
D|--------------------------------------------|
A|--------------------------------------------|
F|--------------------------------------------|
C|--4--4-4-4--4-4-4-4-4--4--4-4-4--7-7-7-7-7--|
G|--0--0-0-0--5-5-5-5-5--0--0-0-0--5-5-5-5-5--|
C|--0--0-0-0--5-5-5-5-5--0--0-0-0--5-5-5-5-5--|

Verse 2 Cont. (Aaron)
D|--10-------------------10-------------------|
A|--------------------------------------------|
F|--------------------------------------------|
C|--------------------------------------------|
G|--------------------------------------------|
C|--------------------------------------------|

Verse 2 Cont. (Ben)
D|-------------------------------------------------------------|
A|-------------------------------------------------------------|
F|-------------------------------------9--9--9--9--------------|
C|--4--4-4-4--12--12--12--12--12---11--11-11-11-11--7-7-7-7-7--|
G|--0--0-0-0--9---9---9---9---9----7---7--7--7--7---5-5-5-5-5--|
C|--0--0-0-0--9---9---9---9---9----7---7--7--7--7---5-5-5-5-5--|

Verse 2 Cont. (Aaron)
D|----10-----12--------14---------15--14--12--10-----------10--|
A|----------------------------------------------------10h12----|
F|--------------------------------------------------14---------|
C|-------------------------------------------------------------|
G|-------------------------------------------------------------|
C|-------------------------------------------------------------|

Chorus (Ben) Play chorus 2 times
D|------------------------------------------------------|
A|--3--3-3-3--3-3-3-3-3--3--3-3-3--3-3-3-3-3--3--3-3-3--|
F|--2--2-2-2--0-0-0-0-0--2--2-2-2--0-0-0-0-0--2--2-2-2--|
C|--0--0-0-0--4-4-4-4-4--0--0-0-0--4-4-4-4-4--0--0-0-0--|
G|--0--0-0-0--5-5-5-5-5--0--0-0-0--5-5-5-5-5--0--0-0-0--|
C|--0--0-0-0--5-5-5-5-5--0--0-0-0--5-5-5-5-5--0--0-0-0--|

Chorus (Aaron)
D|------------------------------------------------------|
A|--3--3-3-3--3-3-3-3-3--3--3-3-3--3-3-3-3-3--3--3-3-3--|
F|--2--2-2-2--0-0-0-0-0--2--2-2-2--0-0-0-0-0--2--2-2-2--|
C|--0--0-0-0--4-4-4-4-4--0--0-0-0--4-4-4-4-4--0--0-0-0--|
G|--0--0-0-0--5-5-5-5-5--0--0-0-0--5-5-5-5-5--0--0-0-0--|
C|--0--0-0-0--5-5-5-5-5--0--0-0-0--5-5-5-5-5--0--0-0-0--|

Chorus Cont. (Ben)
D|------------------------------------------|
A|------------------------------------------|
F|--4--4--4--4--4---7--7--7--7--7--7--7--7--|
C|--2--2--2--2--2---5--5--5--5--5--5--5--5--|
G|--2--2--2--2--2---5--5--5--5--5--5--5--5--|
C|--2--2--2--2--2---5--5--5--5--5--5--5--5--|

Chorus Cont. (Aaron)
D|------------------------------------------|
A|--0--0--0--0--0---3--3--3--3--3--3--3--3--|
F|--x--x--x--x--x---0--0--0--0--0--0--0--0--|
C|--2--2--2--2--2---x--x--x--x--x--x--x--x--|
G|--2--2--2--2--2---5--5--5--5--5--5--5--5--|
C|--2--2--2--2--2---5--5--5--5--5--5--5--5--|

Bridge (Ben and Aaron)
D|--------------------------------------------|
A|--------------------------------------------|
F|--4--4-4-4--7--7-7-7-7--9--9-9-9-7-7-7-7-7--|
C|--4--4-4-4--7--7-7-7-7--7--7-7-7-5-5-5-5-5--|
G|--2--2-2-2--5--5-5-5-5--7--7-7-7-5-5-5-5-5--|
C|------------------------7--7-7-7-5-5-5-5-5--|x4

Chorus (Ben)
D|------------------------------------------------------|
A|--3--3-3-3--3-3-3-3-3--3--3-3-3--3-3-3-3-3--3--3-3-3--|
F|--2--2-2-2--0-0-0-0-0--2--2-2-2--0-0-0-0-0--2--2-2-2--|
C|--0--0-0-0--4-4-4-4-4--0--0-0-0--4-4-4-4-4--0--0-0-0--|
G|--0--0-0-0--5-5-5-5-5--0--0-0-0--5-5-5-5-5--0--0-0-0--|
C|--0--0-0-0--5-5-5-5-5--0--0-0-0--5-5-5-5-5--0--0-0-0--|

Chorus (Aaron)
D|------------------------------------------------------|
A|--3--3-3-3--3-3-3-3-3--3--3-3-3--3-3-3-3-3--3--3-3-3--|
F|--2--2-2-2--0-0-0-0-0--2--2-2-2--0-0-0-0-0--2--2-2-2--|
C|--0--0-0-0--4-4-4-4-4--0--0-0-0--4-4-4-4-4--0--0-0-0--|
G|--0--0-0-0--5-5-5-5-5--0--0-0-0--5-5-5-5-5--0--0-0-0--|
C|--0--0-0-0--5-5-5-5-5--0--0-0-0--5-5-5-5-5--0--0-0-0--|

Chorus Cont. (Ben)
D|--------------------------------------------|
A|--------------------------------------------|
F|--4--4--4--4--4---7--7--7--7--7--7--7-------|
C|--2--2--2--2--2---5--5--5--5--5--5--5-x-77--|
G|--2--2--2--2--2---5--5--5--5--5--5--5-x-77--|
C|--2--2--2--2--2---5--5--5--5--5--5--5-x-77--|

Chorus Cont. (Aaron)
D|--------------------------------------------|
A|--0--0--0--0--0---3--3--3--3--3--3--3-------|
F|--x--x--x--x--x---0--0--0--0--0--0--0---22--|
C|--2--2--2--2--2---x--x--x--x--x--x--x-x-22--|
G|--2--2--2--2--2---5--5--5--5--5--5--5-x-00--|
C|--2--2--2--2--2---5--5--5--5--5--5--5-x-----|

Chorus Cont. (Ben)
D|------------------------------------------------------|
A|--3--3-3-3--3-3-3-3-3--3--3-3-3--3-3-3-3-3--3--3-3-3--|
F|--2--2-2-2--0-0-0-0-0--2--2-2-2--0-0-0-0-0--2--2-2-2--|
C|--0--0-0-0--4-4-4-4-4--0--0-0-0--4-4-4-4-4--0--0-0-0--|
G|--0--0-0-0--5-5-5-5-5--0--0-0-0--5-5-5-5-5--0--0-0-0--|
C|--0--0-0-0--5-5-5-5-5--0--0-0-0--5-5-5-5-5--0--0-0-0--|

Chorus Cont. (Aaron)
D|------------------------------------------------------|
A|--3--3-3-3--3-3-3-3-3--3--3-3-3--3-3-3-3-3--3--3-3-3--|
F|--2--2-2-2--0-0-0-0-0--2--2-2-2--0-0-0-0-0--2--2-2-2--|
C|--0--0-0-0--4-4-4-4-4--0--0-0-0--4-4-4-4-4--0--0-0-0--|
G|--0--0-0-0--5-5-5-5-5--0--0-0-0--5-5-5-5-5--0--0-0-0--|
C|--0--0-0-0--5-5-5-5-5--0--0-0-0--5-5-5-5-5--0--0-0-0--|

Chorus Cont. (Ben)
D|------------------------------------------|
A|------------------------------------------|
F|--4--4--4--4--4---7--7--7--7--7--7--7--7--|
C|--2--2--2--2--2---5--5--5--5--5--5--5--5--|
G|--2--2--2--2--2---5--5--5--5--5--5--5--5--|
C|--2--2--2--2--2---5--5--5--5--5--5--5--5--|

Chorus Cont. (Aaron)
D|------------------------------------------|
A|--0--0--0--0--0---3--3--3--3--3--3--3--3--|
F|--x--x--x--x--x---0--0--0--0--0--0--0--0--|
C|--2--2--2--2--2---x--x--x--x--x--x--x--x--|
G|--2--2--2--2--2---5--5--5--5--5--5--5--5--|
C|--2--2--2--2--2---5--5--5--5--5--5--5--5--|

Outro (Ben)
D|---------------------------------------------------|
A|--3--3-3-3-----------------------------------------|
F|--2--2-2-2-----------------7--7--7--7--7--7--7--7--|
C|--0--0-0-0--2--2--2--2--2--5--5--5--5--5--5--5--5--|
G|--0--0-0-0--2--2--2--2--2--5--5--5--5--5--5--5--5--|
C|--0--0-0-0--2--2--2--2--2--5--5--5--5--5--5--5--5--|x2

Outro Cont. (Ben)
D|-----------------------|
A|--3--3-----------------|
F|--2--2-----------------|
C|--0--0----2------5-----|
G|--0--0----2------5-----|
C|--0--0----2------5-----|

D|--10-10----12---12/14--|
A|---x-------------------|
F|---7-------------------|
C|-----------------------|
G|-----------------------|
C|-----------------------|

Finished!
comments
print report bad tab
11 comments total. Showing first comments.
0 reply
U B the band 5,209 wrote on May 26 2007, 10:18 am

I know it's long but it's everything.

0 reply
SoggyNoodles 13 wrote on August 5 2007, 02:18 pm

wow great tab. i've seen some of ur other tabs. really good

0 reply
U B the band 5,209 wrote on August 6 2007, 12:40 am

Thanks! I try (lol).

I want to post or [tab]
guest
You may want to rate the tab now too:
select rating
Please do not post tabs as comments. Select "correction" instead!