Oops, an error
Loading. Please wait.

Saturate Bass Tab

3,595 views 1 this week
4 commentsread comments
1 2 3 4 5
please rate
add to favorites
launch autoscroll
font size
0
reset
guitar tuner
Autoscroll
slow
fast
+/-
esc
set tempo
stop
Help us to improve Ultimate-Guitar.com Take our survey!
×
Author
Breaking Benjamin - "Saturate"

I Love this album and i wanted to make it convenient for people who want to play the 
all the way through.

Track List and tabber
"Wish I May" - Bass Pants
"Medicate" - reeder21
"Polyamorous" - N/A user
"Skin" - Bass Pants
"Natural Life" - IbanezUser (i flipped it right side up)
"Next To Nothing" - Andrew Zara
"Water" - Andrew Zara
"Home" - Andrew Zara
"Phase" - Ville138
"No Games" - phasesevenfold
"Sugarcoat" - Andrew Zara
"Shallow Bay" - Bass Pants
Don't yell at me for not having "Forever" I'm not too worried about it

"Wish I May"
Intro x2
F#|-----------------------------|-----------------------------|
C#|-----------------------------|-----------------------------|
G#|-----------------------------|-----------------------------|
C#|-0---0---0-------------------|-0---0---0-------------------|

Pre Verse
F#|-----------------------------|-----------------------------|
C#|-----------------------------|-----------------------8-----|
G#|-----------------------------|-----------------------------|
C#|-0---0---0--0--0--0----------|-0---0---0--0--0--0----------|

F#|-----------------------------|-----------------------------|
C#|-----------------------------|-----------------------------|
G#|-----------------------------|-------------------6-6-6-----|
C#|-0---0---0--0--0--0----------|-0---0---0--0--0-------------|

Verse
F#|-----------------------------|-----------------------------|
C#|-----------------------------|-----------------------------|
G#|-----------------------------|-----------------------------|
C#|-0---0---0--0--0--0----------|-0---0---0--0--0--0--0-------|

Pre-Chorus x2

F#|-----------------------------|-----------------------------|
C#|-----------------------------|-----------------------------|
G#|-----------------------------|-6-----6-----6-----6------6--|
C#|-5-----5-----5-----5------5--|-----------------------------|

Chorus

F#|-----------------------------|-----------------------------|
C#|-----------5----------------5|-----------5-----------------|
G#|-3---3---3--0--5---5---5--5--|-3---3---3--0--5---5-5-5/8653|
C#|-----------------------------|-----------------------------|

F#|-----------------------------|-----------------------------|
C#|----------------------------5|-----------------------------|
G#|-1---1---1--0--5---5---5--5--|-1---1---1--0--5---5--5--5-5-|
C#|-----------5-----------------|-----------5-----------------|

Intro (only once)

Perverse

Verse

Chorus

Bridge x2

F#|-----------------------------|-----------------------------|
C#|-----------------------------|-----------------------------|
G#|-----------------------------|-----------------------------|
C#|-5--5--5--5--5--5------------|-5--5--5--5--5--5------------|

F#|-----------------------------|-----------------------------|
C#|-----------------------------|-----------------------------|
G#|-----------------------------|-----------------------------|
C#|-5--5--5--5--5--5------------|-1---1---1---1-----1---------|

During Guitar Solo x2

F#|-----------------------------|-----------------------------|
C#|-----------------------------|-----------------------------|
G#|-----------------------------|-----------------------------|
C#|-5----5--5--5-----1-----8----|-5----5--5--5-----1-----8----|

F#|-----------------------------|-----------------------------|
C#|-----------------------------|-----------------------------|
G#|-----------------------------|-----------------------------|
C#|-5----5--5--5-----1-----8----|-5----5--5--5-----1-----3----|

Chorus x2

Intro (only once)

Outro

F#|-----------------------------|-----------------------------|
C#|-----------------------------|-----------------------------|
G#|-----------------------------|-----------------------------|
C#|-0-----0-----0-----0---------|-0-----0-----0-----0---------|

F#|-----------------------------|-----------------------------|
C#|-----------------------------|-----------------------------|
G#|-----------------------------|-----------------------------|
C#|-0-----0-----0-----0---------|-0-----0-----0-----0-1-1-1-0-|

"Medicate"

Intro
Gb|---------------------------------------------------------------------------|
Db|---------------------------------------------------------------------------|
Ab|---------------------------------------------------------------------------|
Db|-0-0-0-0-4-4-4-4-8-8-8-8-7-7-7-7-------------------------------------------|

Verse :
Gb|--------------------------------------------------------------------------------|
Db|--------------------------------------------------------------------------------|
Ab|--------------------------------------------------------------------------------|
Db|-0--0-4--4-/-8--8p7-8p7---------------------------------------------------------|

Chorus :

Gb|---------------------------------------------------------------------------|
Db|---------------------------------------------------------------------------|
Ab|-------------------------------3-3-3-3-3-3-3-3--5-5-5-5-5-5-5-5------------|
Db|-8-8-8-8-8-8-\-3-3-3-3-3-3-3-3----------------------------------8-8-8--8-8-|

Bridge : Is the same as the intro

Gb|---------------------------------------------------------------------------|
Db|---------------------------------------------------------------------------|
Ab|---------------------------------------------------------------------------|
Db|-0-0-0-0-4-4-4-4-8-8-8-8-7-7-7-7-------------------------------------------|

"Polyamourous"

Played on a 5-string tuned down a half step. I designated the octaves in
parantheses if you wish to play on a 4-string. If you have a 5-string,
obviously you can ignore the parentheses.

Intro

Gb|--------------------------------------------|
Db|--------------------------------------------|
Ab|(2)(2)---(2)(5)(5)---(5)--------------------|x4
Eb|--------------------------3-3----3-3-3----3-|
Bb|-0--0-----0--3--3-----3---------------------|

Gb|------------------------------|
Db|------------------------------|
Ab|(2)(2)--(2)(2)--(2)(2)--(2)(2)|x2
Eb|------------------------------|
Bb|-0--0----0--0----0--0----0--0-|


Verse

Gb|--------------------------------|   |------------------------------|
Db|--------------------------------|   |------------------------------|
Ab|-2-2----------------------------|x3 |-2-2--------------------------|x1
Eb|--------2-2----3-3----0-0--2h3--|   |--------2-2----3-3----0-0--3--|
Bb|--------------------------------|   |------------------------------|


Chorus

Gb|-----------------------|     |-----------------|   |----------------|
Db|-----------------------|     |-----------------|   |----------------|
Ab|(5)--------------------|x2   |(5)--------------|x1 |(5)-------------|x1
Eb|----5--3----2h3-2------|     |----5--3---x-3-3-|   |----2--3--2h3---|
Bb|-3---------------------|     |-3---------------|   |-3--------------|

Gb|---------------------------------|
Db|---------------------------------|
Ab|-(2)(2)--(2)(2)--(2)(2)--(2)(2)--|x1
Eb|---------------------------------|
Bb|--0--0----0--0----0--0----0--0---|

Repeat Verse

Repeat Chorus x2

Interlude

Gb|-----------------------------------|
Db|-----------------------------------|
Ab|-2---4-5---------------------------|x2
Eb|----------2---3-2-3-----2-0---3-2--|
Bb|-----------------------------------|

Repeat Interlude and play 16th notes x2

Gb|-----------------------------------|
Db|-----------------------------------|
Ab|-2---4-5---------------------------|x2
Eb|----------2---3-2-3-----2-0---3-2--|
Bb|-----------------------------------|

Gb|-------------------------------------------|
Db|-------------------------------------------|
Ab|(5)(5)(10)(5)(5)-(10)(5)(5)-(10)(5)--------|x1
Eb|-------------------------------------------|
Bb|-3--3--8\--3--3---8\--3--3---8\--3---------|
			                 ^
			         one beat rest here

Repeat Chorus x2

Outro

Gb|-------------------|
Db|-------------------|
Ab|(5)--------------- |x1
Eb|----2--3--x--3--3--|
Bb|-3-----------------|

Gb|-------------------|
Db|-------------------|
Ab|(5)----------------|x1
Eb|----2--3--2h3 2----|
Bb|-3-----------------|

Gb|-------------------|
Db|-------------------|
Ab|(5)----------------|x1
Eb|----2--3---x-3-3---|
Bb|-3-----------------|

Gb|-------------------|
Db|-------------------|
Ab|(5)----------------|x1
Eb|----2--3-----------|
Bb|-3-----------------|

Gb|----------------------------|
Db|----------------------------|
Ab|(2)(2)--(2)(2)--(2)(2)--(2)-|x1
Eb|----------------------------|
Bb|-0--0----0--0----0--0----0--|

"Skin"
Intro:
G:-------------------------|                      G:----------------|
D:-------------------------| (repeat x3) then...  D:----------------|
A:-4-4--4-4----------------|                      A:-4-4--4-4-------|
D:----------4--2-2--2-2--5-|                      D:----------4--2~-|

Verse:
G:-------------------------            G:-----------------------------|
D:------------------------- (repeat x3)D:-----------------------------|
A:-44-4444-----------------    Then    A:-44-4444---------------------|
D:---------4-22-2222-5-----            D:----------4-2-2-2-2--4-4-4-4-|

Bridge:
G:----------------------------|
D:----------------------------| (repeat x2)
A:-44-----33-----11-----11----|
D:----44-----33-----11-----11-|

Chorus:
G:--------------------|                      G:---------------|
D:------6666-44444444-| (repeat x4) then...  D:-11111111-4444-|
A:-4444---------------|                      A:---------------|
D:--------------------|                      D:---------------|

Fill: (play during solo as well)
G:-------------------------|                       G:----------------|
D:-------------------------| (just once) then...   D:----------------|
A:-4-4--4-4----------------|                       A:-4-4--4-4-------|
D:----------4--2-2--2-2--5-|                       D:----------4--2~-|

Final Chorus:
G:--------------------|                      G:------------|
D:------6666-44444444-| (repeat x8) then...  D:-1~----4~---|
A:-4444---------------|                      A:------------|
D:--------------------|                      D:------------|

"Natural Life"
Intro
Gb)--7---9---10---7---12---9---7---10---7---7---9---5-|
Db)0---0---0----0---0----0---0---0----0---0---0---0---|
Ab)---------------------------------------------------|
Db)---------------------------------------------------|

Breakdown
Gb)-------------|
Db)-------------|
Ab)-------------|
Db)0-0-0-0-0-0--|

Verse
Gb)-------------|
Db)-------------|
Ab)------1------|
Db)0-3-0---0-3--|

Chorus
Gb)---------------------------------------------------|
Db)---------------------------------------------------|
Ab)--------------------8-8-8--------------------------|
Db)3-3-0-3-0-7-7-0-7-0-------10-10-10-8-8-8-10-10-10--|

Breakdown to interlude
Gb)-------------------------|
Db)-------------------------|
Ab)------8-8-8-7-7-7-3-3-3--|
Db)8-8-8--------------------|

Interlude
Gb)--------------------------------------------------------------|
Db)--------------------------------------------------------------|
Ab)------------------------------------------8-8-8-7-7-7-3-3-3---|
Db)10h12-12-12-10-10-0-10h12p0-10h12p0-8-8-8---------------------|

"Next To Nothing"
verse
Gb--------------|
Db--------------|
Ab--4--0--------|
Db--------4--4--|


pre-chorus
Gb--------------------|
Db--------------------|
Ab--0000000022222222--|
Db--------------------|

chorus
Gb-------------------------|
Db-------------------------|
Ab-------0-000--4-4--2-222-|
Db--2-2--------------------|

post-chorus 1
Gb--------------------|
Db--------------------|
Ab--0000000022222222--|
Db--------------------|

post-chorus 2
Gb------------------------|
Db------------------------|
Ab--0-0-0-0-2--0-0-0-2----|
Db---------------------6--|

order

verse 6x
pre-chorus 2x
chorus 4x
post-chorus 1 1x
verse 6x
pre-chorus 2x
chorus 4x
post-chorus 2 5x
verse 4x
chorus 4x
post-chorus 1 2x
verse 4x

"Water"
Intro
Gb|--------------------------|
Db|--------------------------|
Ab|--------------------------|
Db|0~----0~----0~----0~------|

Main Riff
Gb|-------------------------|-------------------------|
Dd|-------------------------|-------------------------|
Ab|----------------------1--|----------------------1--|
Db|-1p0-0-0-1p0-0-0-1p0-----|-1p0-0-0-1p0-0-0-1p0-----|

Gb|--------------------------|----------------------|
Dd|--------------------------|----------------------|
Ab|----------------------1---|-------------------543|
Db|---0-0-0-1p0-0-0-1p0------|-1p0-0-0--1p0--0--0---|

Gb|------------------------|-------------------------|
Db|------------------------|-------------------------|
Ab---------------------1---|----------------------1--|
Db|1p0-0-01p0-0-0-1p0------|-1p0-0-0-1p0-0-0-1p0-----|

Gb|--------------------------|-----------------0|
Db|--------------------------|------------------|
Ab|----------------------1---|------------------|
Db|---0-0-0-1p0-0-0--1p0-----|-1p0-0-0-1p0-0-00-|

Verse
Gb|---------------------0|
Db|----------------------|
Ab|----------------------|
Db|-1p0-0-0-1p0-0-0-1p0--|

Pre
Gb|----------------------|
Db|----------------------|
Ab|---------------------1|
Db|-1p0-0-0-1p0-0-0-1p0--|

Gb|-----------------|----------------------|
Db|-----------------|----------------------|
Ab|-5-5-5-5-5-5-5-5-|-6-6-6-6\\--1/--6-----|
Db|-----------------|----------------------|

Gb|----------------------|-------------------|
Dd|----------------------|-------------------|
Ab|---------------------1|-------------------|
Db|-1p0-0-0-1p0-0-0-1p0--|-1p0-0-0-1p0-0-----|

Gb|------------------------------------|
Dd|------------------------------------|
Ab|-5-5-5-5-5-5-5-5-|-8-8-8-8\\--1/-6--|
Db|------------------------------------|

Chorus/outro X2
Gb|--------------------------|----|-------|
Db|--------------------------|----|-------|
Ab|11111111-33333333-55555555|----|-------|
Db|--------------------------|1--3|1p0-1p0|

Post chorus
Gb|---------------------------|------------------------|
Dd|---------------------------|------------------------|
Ab|1-1--x-x-x-x--3-3--x-x-x-x-|-5--5--5--5-------------|
Db|---------------------------|-------------6--6--6--6-|

Gb|------------------------|--------------------------|----------------------|
Db|------------------------|--------------------------|----------------------|
Ab|-----------------------1|-----------------------1--|---------------------1|
Db|-1p0-0-0-1p0-0-0-1p0----|-1p0-0-0-1p0-0-0-1p0------|-0-0-0-1p0-0-0-1p0----|

Gb|----------------------0|
Db|-----------------------|
Ab|-----------------------|
Db|-1p0-0-0-1p0-0-0-1p0---|


Bridge X4
Gb|---------|
Db|---------|
Ab|-5430----|
Db|------530|

"Home"
Intro  (the guitar does it once first)
Gb|---------------------------|---------------------------|
Dd|---------------------------|---------------------------|
Ad|---------------------------|---------------------------|
Dd|-0---0-0---0-0---0-0---0-8-|-0---0-0---0-0---0-0---0-8-|

Gb|---------------------------|---------------------------|
Dd|---------------------------|---------------------------|
Ad|---------------------------|---------------------------|
Dd|-0---0-0---0-0---0-0---0-8-|--0---0-0---0-0---0-0--0-8-|

Gb|---------------------------|---------------------------|
Dd|---------------------------|---------------------------|
Ad|---------------------------|---------------------------|
Dd|-0---0-0---0-0---0-0---0-8-|-0---0-0---0-0---0-0---0-8-|

Gb|---------------------------|---------------------------|
Dd|---------------------------|---------------------------|
Ad|---------------------------|---------------------------|
Dd|-0---0-0---0-0---0-0---0-8-|-0---0-0---0-0---0-0---0-8-|


Verse
Gb|-----------------------|
Dd|-----------------------|
Ad|---------------------6-| x8
Dd|-0----3----0----3------|

Gb|-----------------------|
Dd|-----------------------|
Ad|-----------------------|
Dd|-5----8----5----8----1-|

Gb|-----------------------|
Dd|-----------------------|
Ad|-----------------------|
Dd|-5----8----5----8----1-|

Gb|-----------------------|
Dd|-----------------------|
Ad|---------------------6-|
Dd|-0----3----0----3------|

Gb|-----------------------|
Dd|-----------------------|
Ad|---------------------6-|
Dd|-0----3----0----3------|


Pre-chorus
Gb|----------------------------|---------------------------|
Dd|----------------------------|---------------------------|
Ad|-3----3---3----3-----3----3-|---------------------------| x2
Dd|----------------------------|-1----1---1----1----1----1-|

Gb|-----------------------|
Dd|-----------------------|
Ad|-----------------------| x4
Dd|-0----3----0----3----1-|


Verse
Gb|-----------------------|
Dd|-----------------------|
Ad|---------------------6-| x8
Dd|-0----3----0----3------|

Gb|-----------------------|
Dd|-----------------------|
Ad|-----------------------|
Dd|-5----8----5----8----1-|

Gb|-----------------------|
Dd|-----------------------|
Ad|-----------------------|
Dd|-5----8----5----8----1-|

Gb|-----------------------|
Dd|-----------------------|
Ad|---------------------6-|
Dd|-0----3----0----3------|

Gb|-----------------------|
Dd|-----------------------|
Ad|---------------------6-|
Dd|-0----3----0----3------|


Pre-chorus
Gb|----------------------------|---------------------------|
Dd|----------------------------|---------------------------|
Ad|-3----3---3----3-----3----3-|---------------------------| x2
Dd|----------------------------|-1----1---1----1----1----1-|


Chorus
Gb|-----------------------------|-----------------------------| }
Dd|-----------------------------|-----------------------------| }
Ad|-1----1---1---1---1--1--1--1-|-----------------------------| }
Dd|-----------------------------|-5----5---5---5---5--5--5--5-| }
                                                                } x2
Gb|-----------------------------|-----------------------------| }
Db|-----------------------------|-----------------------------| }
Ab|-----------------------------|-----------------------------| }
Db|-3----3---3---3---3--3--3--3-|-1----1---1---1---1--1--1--1-| }


Bridge   ( let the guitar do it's little thingy then come in with this )
Gb|-----------------------|----------------------------|
Dd|-----------------------|----------------------------|
Ad|-----------------------|----------------------------|
Dd|-0----3----0----3----1-|-0----3----0----3----1x-----|

Gb|-----------------------|----------------------------|
Dd|-----------------------|----------------------------|
Ad|-----------------------|----------------------------|
Dd|-0----3----0----3----1-|-0----3----0----3----1x-----|

Gb|-----------------------|----------------------------|
Dd|-----------------------|----------------------------|
Ad|-----------------------|----------------------------|
Dd|-0----3----0----3----1-|-0----3----0----3----1--0-0-|

Gb|-----------------------|----------------------------|
Dd|-----------------------|----------------------------|
Ad|-----------------------|----------------------------|
Dd|-0----3----0----3----1-|-0----3----0----3----1------|


Chorus
Gb|-----------------------------|-----------------------------| }
Dd|-----------------------------|-----------------------------| }
Ad|-1----1---1---1---1--1--1--1-|-----------------------------| }
Dd|-----------------------------|-5----5---5---5---5--5--5--5-| }
                                                                } x4
Gb|-----------------------------|-----------------------------| }
Db|-----------------------------|-----------------------------| }
Ab|-----------------------------|-----------------------------| }
Db|-3----3---3---3---3--3--3--3-|-1----1---1---1---1--1--1--1-| }


Ending
Gb|---------------------------|---------------------------|
Dd|---------------------------|---------------------------|
Ad|---------------------------|---------------------------|
Dd|-0---0-0---0-0---0-0---0-8-|-0---0-0---0-0---0-0---0-8-|

Gb|---------------------------|-------------------------------|
Dd|---------------------------|-------------------------------|
Ad|---------------------------|-------------------------------|
Dd|-0---0-0---0-0---0-0---0-8-|-0------0------0------0------0-|

"Phase"
Intro
|---------------------|
|---------------------|
|---------------------|  x4
|-5--8--3--5--0-3-0---|

then switch to
|-------------------------------------|
|-------------------------------------|
|-------------------------------------|  repeat until verse
|-5-5-5--8-8-8--3-3-3--5-5-5--0-0-3-0-|

Verse
|---------------------|
|---------------------|
|---------------------|  x4
|-5--8--3--5--0-3-0---|

|---------------------------------------|
|---------------------------------------|
|---------------------------------------|  x4
|-5-5-5--8-8-8--3-3-3--5-5-5--0-0-3-0---|

Chorus
|----------------------------------------|
|----------------------------------------|
|-------------------1-0------------------|
|-1-1-1-1--5-5-5-5------3--1-1-1-1--8--7-|

-------------------------------------------------------------------------|
-------------------------------------------------------------------------|
--------------------1-0--------------------------------------------------|
--1-1-1-1--5-5-5-5------3--1-1-1-1--8-8-8-8--7-7-7-7--5-5-5-5--3-3-3--8--|

--------------------------|
--------------------------|
--------------------------|
-1-1-1-1---1-1-1--3-3-3-3-|

"Phase..."
|---------------------------------------|
|---------------------------------------|
|---------------------------------------|  x4
|-5-5-5--8-8-8--3-3-3--5-5-5--0-0-3-0---|

Verse
|---------------------|
|---------------------|
|---------------------|  x4
|-5--8--3--5--0-3-0---|

|---------------------------------------|
|---------------------------------------|
|---------------------------------------|  x4
|-5-5-5--8-8-8--3-3-3--5-5-5--0-0-3-0---|

Chorus
|----------------------------------------|
|----------------------------------------|
|-------------------1-0------------------|
|-1-1-1-1--5-5-5-5------3--1-1-1-1--8--7-|

-------------------------------------------------------------------------|
-------------------------------------------------------------------------|
--------------------1-0--------------------------------------------------|
--1-1-1-1--5-5-5-5------3--1-1-1-1--8-8-8-8--7-7-7-7--5-5-5-5--3-3-3--8--|


------------------------------------------------------|
------------------------------------------------------|
------------------------------------------------------|
-1-1-1-1---1-1-1-1--1--1--1---1-1-1-1--1-1--1-1-3-3-3-|

Solo
|----------------------------------------------------------------------------|
|----------------------------------------------------------------------------|
|--1-1-1-1-1-1-1-1-1-1---------------1-1-1-1-1-1-1-1-1-----------------------|
|----------------------3-3-3-3-3-3-3-------------------3-3-3-3-3-3-3-3--1--3-|

|----------------------------------------------------------------|
|----------------------------------------------------------------|
|--1-1-1-1-1-1-1-1-1-1------------------1-1-1-1-1-1-1-1-1--------|
|------------------------3-3-3-3-3-3-3----------------------8--7-|

Outro
|---------------------------------------|
|---------------------------------------|
|---------------------------------------|  x8
|-5-5-5--8-8-8--3-3-3--5-5-5--0-0-3-0---|

"It's just a f***ing phase!"
|-----------------------------|
|-----------------------------|
|-----------------------------| x7
|-5-5--5--5-5-5--5--5--8-8-3--|

|-------------------|
|-------------------|
|-------------------|
|-5-5--5--5-5-5--5--|

End

"No Games"
Intro/post chorus
Gb--------------------------------------|
Db--------------------------------------|
Ab-538~--573-3353-573-3353-573-3353-538~|
Db--------------------------------------|

Verses
Gb-------------------------------|
Db-------------------------------|
Ab-573-3353-573-3353-573-3353-538|
Db-------------------------------|

Pre-chorus
Gb--------------------------------------------------------------------|
Db--------------------------------------------------------------------|
Ab-555-333-88888888-555-333-88888888-555-333-88888888-555-333-88888888|
Db--------------------------------------------------------------------|

Chorus x2 or however many
Gb---------------------------------|
Db---------------------------------|
Ab---------------------------------|
Db-55555555-2222222-99999999-555575|

Last Chorus/outro repeat 4-6 times
Gb----------------------------------|
Db----------------------------------|
Ab-55555555-33333333-99999999-555575|
Db----------------------------------|

"Sugarcoat"
Intro/Chorus:
G:--------------------------------------------------------------------|
D:--------------------------------------------------------------------|
A:----------------------3~------------------------------3-------------|
E:2-02-x-2-02-x-2-02-x-------3~----2-02-x-2-02-x-2-02-x----3/12\3-----|

Verse/Part 1 of solo:
G:--------------------------------------------------------------------------|
D:--------------------------------------------------------------------------|
A:0--0--0--0-0-003--3--3--3-3-33--------------------------------------------|
E:--------------------------------------2--2--2--2-2-225--5--5--5-5-55------|

Part 2 of solo (Different Rhythm):
G:-------------------------------------------------------------------------|
D:-------------------------------------------------------------------------|
A:0-0-00--0-0-003-3-33--3-3-33---------------------------------------------|
E:----------------------------------------2-2-22--2-2-225-5-55--5-5-55-----|

End of Song:
G:----------------------------------------------------------------------|
D:----------------------------------------------------------------------|
A:----------------------------------------------------------------------|
E:2-1-2--2-3-2--2-1-2--2-3-2--2-3-3--3-1-1-----------------x4-----------|

On 4th time:
G:--------------------------------------------|
D:--------------------------------------------|
A:--------------------------------------------|
E:-(2-3-3--3-1-1)-1-3-3-3-1-1-1-2~------------|

"Shallow Bay"
Guitar Intro (Start with this at 00:05)
Gb|-----|
Db|-----|
Ab|-----|
Db|-20~-| x1

Intro/Post Chorus
Gb|----------------------------------|
Db|----------------------------------|
Ab|----------------------------------|
Db|-2520-22222222---2520-222222220~--| x3

Verse
Gb|--------------------------------------|
Db|--------------------------------------|
Ab|----23--------------23----------------|
Db|-25----22222222---25---22222220~------| x2

Pre-Chorus (which is the Intro x2)

Chorus Part 1 x3
Gb|--------------------------------|
Db|--------------------------------|
Ab|-33333333-----------------------|
Db|---------------5555---2-0-2-0---|

Chorus Part 2 x1
Gb|-------------------|
Db|-------------------|
Ab|-33333333-22222222-|
Db|-------------------|

Intro
Verse
Pre-Chorus
Chorus Part 1 x3
Chorus Part 2 x2

Bridge
Gb|-----------|
Db|-----------|
Ab|---------3-|
Db|-0-2---0---| x4

Ending
Gb|------------------------------------------|
Db|------------------------------------------|
Ab|-----030-----030-----030-----030-----030--|
Db|-203-----203-----203-----203-----203------|

Gb|---|
Db|---|
Ab|-3~|
Db|---|
Suggest correction
What's this?
You can suggest a correction to this tab. Community and Mods will review your correction and vote to approve or reject it.
comments
We did not receive enough feedback on this tab! Please rate:
print report bad tab
1 2 3 4 5
4 comments total. Showing first comments.
0 reply
Bass Pants 1,818 wrote on June 18 2007, 03:34 pm

first update was made, i screwed up the intro to "Wish I May", and blended the intro, pre-verse and verse, its been fixed and will be updated

0 reply
Metal_Rich 1,104 wrote on June 18 2007, 05:37 pm

Just reading through it, good so far, but you missed the slaps in the bridge of Polyamorous.

0 reply
Bass Pants 1,818 wrote on July 5 2007, 11:26 pm

i don't know what fret the slaps are on, do you know so i can correct it?

guest
You may want to rate the tab now too:
select rating
Please do not post tabs as comments. Select "correction" instead!